Oops, an error
Loading. Please wait.

La Bifurcada Tab

version 2
version 2

Whole song

181 views 1 this week
no commentswrite comment
1 2 3 4 5
2 more votes to show rating
add to favorites
launch autoscroll
font size
0
reset
how to read this tab
guitar tuner
×
Best way to learn
"La Bifurcada"
Autoscroll
slow
fast
+/-
esc
set tempo
stop
e----------------------------
b----------------------------
g---9---8---7-5-7-7/8-5------
d-7---7---7-------------7----
a----------------------------
E----------------------------

e--------------------
b--------------------
g---9---8---5--------
d-7---7---7---7-5-7--
a--------------------
E--------------------

e----------------------------
b----------------------------
g---9---8---7-5-7-7/8-5------
d-7---7---7-------------7----
a----------------------------
E----------------------------

e------------------------
b------------------------
g------------------------
d-7-7-5-5-4-4-3-3-2-5-6-7-
a-------------------------
E------------------------
Suggest correction
Give kudos to tab author, rate the tab!
1 2 3 4 5
comments
print report bad tab
guest
You may want to rate the tab now too:
select rating
Wanna post a correction for this tab? Suggest correction