Oops, an error
Loading. Please wait.

La Ultima Lagrima Tab

341 views 15 this week
no commentswrite comment
1 2 3 4 5
3 more votes to show rating
add to favorites
×
Save as Personal and add changes to this tab that will be seen only by you. Learn more ›
×
You can save this tab as Personal to edit and correct it or add notes. All changes will be seen only by you. Learn more »
save as personal
new!
launch autoscroll
font size
0
reset
how to read this tab
guitar tuner
Autoscroll
slow
fast
+/-
esc
set tempo
stop
[ch]A[/ch] ultima lagrima

Bueno me falta el solo, pense que lo tenia escrito pero
parece que no, mas adelante lo subo.
Aquí les paso los acordes exactos:

    C7   C#dim   Bm7        E7    Am7   D7         G7   B7    Em
E||--3-----------2--------|--------5----5--------|--3----7----7------|
B||--5----5------3--------|--5-----5----7--------|--3----7----8------|
G||--3----3------2--------|--7-----5----5--------|--4----8----7------|
D||--5----5------4--------|--6-----5----7--------|--3----7----9------|
A||--3----4------2--------|--7-----7----5--------|--5----9----7------|
E||-----------------------|--------5-------------|--3----7-----------|


 Ebdim  Bb7   A7
--8-----1----5--------||
--7-----3----5--------||
--8-----1----6--------||
--x-----3----5--------||
--6-----1----7--------||
-------------5--------||

Intro: C7 - C#dim - Bm7 - E7 - Am7 - D7 - G7 - D7

     Solo Intro
E||-------------------------------|
B||-------------------------------|
G||---------------------------/9--|
D||-------------------------------|
A||-------------------------------|
E||-------------------------------|


                     |-3|
--------------------------------------------|
--8~------L--10-----11p-8~--L----L----------|
-----------------9----------------------12--|
------------------------------------14------|
--------------------------------------------|
--------------------------------------------|


---------------------------------------------|
---------------------------------------------|
--14b----14b--14b----15b--15br---------------|
----------------------------------14--L------|
---------------------------------------------|
---------------------------------------------|


-------------------------------------------------------|
------16b---L--15--14--13--12--13-12-13-12----13-12----|
-------------------------------------------12-------12-|
-------------------------------------------------------|
-------------------------------------------------------|
-------------------------------------------------------|


------------------------------------|---------------|---------------|
------------------------------------|---------------|---------------|
--12--L----10--7------7~------------|---------------|---------------|
------------------10----------------|---------------|---------------|
------------------------------------|---------------|---------------|
------------------------------------|---------------|---------------|

Verso 1:
       G           G        B7            B7
De un sueño profundo    despertaste hoy
   Em7          Ebdim    Dm7      G7
La ultima lagrima por tu cara rodo
C7          C#dim      Bm7   Bb7
Lo que no fue ya nunca sera
     Am7          A7   D7
Cierra tus heridas deja de llorar

Verso2:
   G        G      B7         B7
Abre tus ojos que ya sale el sol
Em7       Ebdim    Dm7      G7
Abre tu alma que llega el amor
   C7          C#dim     Bm7   E
Un dia cualquiera en algun lugar
        A7     D7      G     G7
Tendras otra oportunidad

Estribillo:
C7
La gloria fue el beso de una falsa mujer
G7
Quedaste offside y empezaste a perder
C7
Y los amigos que la fama te dio
A7                     D7
Todo todo todo desaparecio

Verso 3 (igual a verso 2):
  G           G     B7      B7
Muy lenatamente se desenredo
 Em7     Ebdim   Dm7       G7
La telaraña      de tu cancion
   C7          C#dim          Bm7   E
No se si fue magia canto de caracol
        A7            D7     G     G7
Algo bueno para tu corazon

Solo saxo (progresiones del verso 1)
Solo guitarra (progresiones del verso 2)

Estribillo 2:
C7
La gloria fue el beso de una falsa mujer
G7
Quedaste offside y empezaste a perder
C7
Y los amigos que la fama te dio
A7                     D7
Todo todo todo desaparecio

   G        G      B7         B7
Abre tus ojos que ya sale el sol
Em7       Ebdim    Dm7      G7
Abre tu alma que llega el amor
   C7          C#dim     Bm7   E
Un dia cualquiera en algun lugar
        A7         D7     G      E7
Tendras otra oportunidad
        A7         D7   Bm    Bb7
Tendras otra oportunidad
           A5  B5  C5  C#5 D5      G  C7  C#dim  D7
Tendras otra                   oportunidad

G6 - G7
Suggest correction
Give kudos to tab author, rate the tab!
1 2 3 4 5
comments
print report bad tab
guest
Wanna post a correction for this tab? Suggest correction