Oops, an error
Loading. Please wait.

Conjunction Conjunctions Everybody Loves Them Tab

version 1
version 1

Whole song

Interactive

5,150 views 1 this week
2 commentsread comments
1 2 3 4 5
x 3
add to favorites
launch autoscroll
font size
0
reset
how to read this tab
guitar tuner
Autoscroll
slow
fast
+/-
esc
set tempo
stop
Help us to improve Ultimate-Guitar.com Take our survey!
×
Author
Difficulty
Tuning
intermediate
C G C F A D
Song: Conjunctions, Conjunctions, Everybody Loves Them
Artist: Memphis May Fire
Submitted by: Dillon Redding

Tuning (High to Low): Eb, Bb, Gb, Db, Ab, Db (Drop D down 1/2 step)

Note: This what I got out of it. I hope this helps if you're trying to figure out
this song. Good luck.

Intro:
Eb|----------------------------------------0---|
Bb|----------------------------------------6---|
Gb|--------------------------------------------|
Db|--------------------------------------------|
Ab|----3p0-5-------3-5-----3p0-5-------3-------|
Db|--0---------3h5-------0---------3h5---------|

Eb|--------------------------------------------|
Bb|--------------------------------------------|
Gb|--------------------------------------------|
Db|--------------------------------------------| x2
Ab|----3p0-5-------3-5-----3p0-5---------------|
Db|--0---------3h5------0----------6--5--3-----|

  Fill:
Eb|--------------------------|
Bb|--------------------------|
Gb|--------------------------|
Db|--3h0---------------------|
Ab|------3h0--3h0------------|
Db|---------------3h0--------|

  Intro (Cont.):
Eb|----------------------------------------0---|
Bb|----------------------------------------6---|
Gb|--------------------------------------------|
Db|--------------------------------------------|
Ab|----3p0-5-------3-5-----3p0-5-------3-------|
Db|--0---------3h5-------0---------3h5---------|

Eb|--------------------------------------------|
Bb|--------------------------------------------|
Gb|--------------------------------------------|
Db|--------------------------------------------|
Ab|----3p0-5-------3-5-----3p0-5---------------|
Db|--0---------3h5------0----------6--5--3-----|

  Verse 1:
Eb|--0-0---0-0-0-0-0-0-------0-0-0-0-0-0-------|
Bb|--5-5---5-5-5-5-5-5-------5-5-5-5-5-5-------|
Gb|--------------------------------------------|
Db|------3--------------3-33-------------------|
Ab|------3--------------3-33-------------------|
Db|------3--------------3-33-------------------|

Eb|------0-0-0-0-0-0-------0-0-0-0-0-----------|
Bb|------6-6-6-6-6-6-------6-6-6-6-6-----------|
Gb|--------------------------------------------|
Db|--3-0-------------0-00----------------------|
Ab|--3-0-------------0-00----------------------|
Db|--3-0-------------0-00----------------------|

Eb|-----0-0-0-0-0-0--------0-0-0-0-0-0---------|
Bb|-----5-5-5-5-5-5--------5-5-5-5-5-5---------|
Gb|--------------------------------------------|
Db|--\3--------------3-33----------------------|
Ab|--\3--------------3-33----------------------|
Db|--\3--------------3-33----------------------|

Eb|------0-0-0-0-0-0-------0-0-0-0-0-----------|
Bb|------6-6-6-6-6-6-------6-6-6-6-6-----------|
Gb|--------------------------------------------|
Db|--3-0-------------0-00----------------------|
Ab|--3-0-------------0-00----------------------|
Db|--3-0-------------0-00----------------------|

  Verse 2:
Eb|--------------------------------------------|
Bb|--------------------------------------------|
Gb|--------------------------------------------|
Db|--33-333-333-333-333-333-333-355------------|
Ab|--33-333-333-333-333-333-333-355------------|
Db|--33-333-333-333-333-333-333-355------------|

Eb|--------------------------------------------|
Bb|--------------------------------------------|
Gb|--------------------------------------------|
Db|--500-000-000-000-000-000-000-000-----------|
Ab|--500-000-000-000-000-000-000-000-----------|
Db|--500-000-000-000-000-000-000-000-----------|

Eb|--------------------------------------------|
Bb|--------------------------------------------|
Gb|--------------------------------------------|
Db|--3333333333333333333333333335555-----------|
Ab|--3333333333333333333333333335555-----------|
Db|--3333333333333333333333333335555-----------|

Eb|--------------------------------------------|
Bb|--------------------------------------------|
Gb|--------------------------------------------|
Db|--0000000000000000000000000000000-----------|
Ab|--0000000000000000000000000000000-----------|
Db|--0000000000000000000000000000000-----------|

  Solo:
Eb|----------------------------------------------|
Bb|--10------------------------------------------|
Gb|--12b14--10~-12h14p12p10----------------------|
Db|-------------------------12-10----10-12*------|
Ab|-------------------------------12-------------|
Db|----------------------------------------------|

Eb|--10h13p10----------13-10---------------------|
Bb|-----------10h13p10-------13-10---------------|
Gb|--------------------------------10-12*b14r12--|
Db|----------------------------------------------|
Ab|----------------------------------------------|
Db|----------------------------------------------|

Eb|----------------------------------------------|
Bb|----------------------------------------------|
Gb|--------10h12p10------------------------------|
Db|--10-12----------12-10----------12-0----------|
Ab|-----------------------12-11-12---------------|
Db|----------------------------------------------|

  Riff under solo:
Eb|-------------------------------------------------------------------|
Bb|-------------------------------------------------------------------|
Gb|-------------------------------------------------------------------|
Db|-------------------------------------------------------------------|
Ab|----3p0h3p0h3p0-5----3p0h3p0h3p0-5-3p0h3p0h3p0-5-3p0h3p0h3p0-5-----|
Db|--0----------------0-------------------------------------------3b--|
  Solo Starts here ^

Eb|--------------------------------------------------|
Bb|--------------------------------------------------|
Gb|--------------------------------------------------|
Db|--------------------------------------------------|
Ab|----3p0h3p0h3p0-5-3p0h3p0h3p0-5-3p0h3p0h3p0-5-----|
Db|--0-------------------------------------------3b--|

  Verse 3:
Eb|-----------------------------------------------0--|
Bb|-----------------------------------------------6--|
Gb|--------------------------------------------------|
Db|--------------------------------------------------|
Ab|----3p0h3p0h3p0-5-3p0h3p0h3p0-5-3p0h3p0h3p0-5-----|
Db|--0-----------------------------------------------|

Eb|--------------------------------------------------|
Bb|--------------------------------------------------|
Gb|--------------------------------------------------|
Db|--------------------------------------------------| x2
Ab|----3p0h3p0h3p0-5-3p0h3p0h3p0-5-3p0h3p0h3p0-5-----|
Db|--0-------------------------------------------3b--|

  Interlude:
Eb|--------------------------------------------------|
Bb|--10--10-10-10--10-10--10-10-------10--10-10-10---|
Gb|--10--10-10-10--10-10--10-10-------10--10-10-10---|
Db|--8---8--8--8---8--8---8--8---0----0---0--0--10---|
Ab|--8---8--8--8---8--8---8--8---0----0---0--0--10---|
Db|--8---8--8--8---8--8---8--8---0----0---0--0--10---|

Eb|--------------------------------------------------------|
Bb|--10--10-10-x-x-------10--10-10-10--10-10--10-10-10-10--|
Gb|--10--10-10-x-x-------10--10-10-10--10-10--10-10-10-10--|
Db|--10--10-10-x-x---8---8---8--8--8---8--8---8--8--8--8---|
Ab|--10--10-10-x-x---8---8---8--8--8---8--8---8--8--8--8---|
Db|--10--10-10-x-x---8---8---8--8--8---8--8---8--8--8--8---|

  Fill:
Eb|---------------------------------------------------|
Bb|--10-10-10-10-10-10-10-10-10-10-10-10-10-10-10-10--|
Gb|--10-10-10-10-10-10-10-10-10-10-10-10-10-10-10-10--|
Db|---------------------------------------------------|
Ab|---------------------------------------------------|
Db|---------------------------------------------------|

  Verse 4:
Eb|-------------------------------------------------------|
Bb|--10--10-10-10--10-10--10-10-10-10------10--10-10-10---|
Gb|--10--10-10-10--10-10--10-10-10-10------10--10-10-10---|
Db|--8---8--8--8---8--8---8--8--8--8---0---0---0--0--10---|
Ab|--8---8--8--8---8--8---8--8--8--8---0---0---0--0--10---|
Db|--8---8--8--8---8--8---8--8--8--8---0---0---0--0--10---|

Eb|----------------------------------------------------------|
Bb|--10--10-10-10-10-------10--10-10-10--10-10--10-10-10-10--|
Gb|--10--10-10-10-10-------10--10-10-10--10-10--10-10-10-10--|
Db|--10--10-10-10-10---8---8---8--8--8---8--8---8--8--8--8---|
Ab|--10--10-10-10-10---8---8---8--8--8---8--8---8--8--8--8---|
Db|--10--10-10-10-10---8---8---8--8--8---8--8---8--8--8--8---|

Eb|----------------5--5--5-5-5-5------------|
Bb|------10--10-10-6--6--6-6-6-6------------|
Gb|------10--10-10-x--x--x-x-x-x------------|
Db|--0---0---0--0--3--3--3-3-3-3---8--------| x2
Ab|--0---0---0--0--3--3--3-3-3-3---8--------|
Db|--0---0---0--0--3--3--3-3-3-3---8--------|
                  *-------------------------| Leave out second time

  Breakdown:
Eb|-----------------0------------------------------------|
Bb|-----------------6------------------------------------|
Gb|------------------------------------------------------|
Db|--------------------------------------------3p0-------|
Ab|----5------0--0-----0-0-0--0-0-0--------0h3-----3h5---|
Db|--3---6-5--0--0-----0-0-0--0-0-0--3b------------------|

Eb|--------0------------------------------------|
Bb|--------6------------------------------------|
Gb|---------------------------------------------|
Db|---------------------------------------------|
Ab|--0--0-----0-0-0--0-0-0--------3p0-3p0-------|
Db|--0--0-----0-0-0--0-0-0--3b------------3p0---|

Eb|--------0------------------------------------|
Bb|--------6------------------------------------|
Gb|---------------------------------------------|
Db|-----------------------------------3p0-------|
Ab|--0--0-----0-0-0--0-0-0--------0h3-----3h5---|
Db|--0--0-----0-0-0--0-0-0--3b------------------|

Eb|--------0-------------------------------|
Bb|--------6-------------------------------|
Gb|----------------------------------------|
Db|----------------------------------------|
Ab|--0--0-----0-0-0--0-0-0------0--5-------|
Db|--0--0-----0-0-0--0-0-0--3b--0--5-------|

Eb|--------0------------------------------------|
Bb|--------6------------------------------------|
Gb|---------------------------------------------|
Db|-----------------------------------3p0-------|
Ab|--0--0-----0-0-0--0-0-0--------0h3-----3h5---|
Db|--0--0-----0-0-0--0-0-0--3b------------------|

Eb|--------0------------------------------------|
Bb|--------6------------------------------------|
Gb|---------------------------------------------|
Db|---------------------------------------------|
Ab|--0--0-----0-0-0--0-0-0--------3p0-3p0-------|
Db|--0--0-----0-0-0--0-0-0--3b------------3p0---|

Eb|--------0------------------------------------|
Bb|--------6------------------------------------|
Gb|---------------------------------------------|
Db|-----------------------------------3p0-------|
Ab|--0--0-----0-0-0--0-0-0--------0h3-----3h5---|
Db|--0--0-----0-0-0--0-0-0--3b------------------|

Eb|--------0--------------------------------------|
Bb|--------6--------------------------------------|
Gb|-----------------------------------------------|
Db|-----------------------------------------------|
Ab|--0--0-----0-0-0--0-0-0------5-----5-------x\--|
Db|--0--0-----0-0-0--0-0-0--3b-----6-----6----x\--|
                                              *Pick Scrape
  Outro:
Eb|----------------------------------------0---|
Bb|----------------------------------------6---|
Gb|--------------------------------------------|
Db|--------------------------------------------|
Ab|----3p0-5-------3-5-----3p0-5-------3-------|
Db|--0---------3h5-------0---------3h5---------|

Eb|--------------------------------------------|
Bb|--------------------------------------------|
Gb|--------------------------------------------|
Db|--------------------------------------------| x2
Ab|----3p0-5-------3-5-----3p0-5---------------|
Db|--0---------3h5------0----------6--5--3-----|

  The End:
Eb|-----------------------------------------|
Bb|-----------------------------------------|
Gb|-----------------------------------------|
Db|--0--0--0--0--0--0--0--0-----------------|
Ab|--0--0--0--0--0--0--0--0-----------------|
Db|--0--0--0--0--0--0--0--0-----------------|

Eb|-----------------------------------------------------|
Bb|-----------------------------------------------------|
Gb|-----------------------------------------------------|
Db|--0-0-0-0-0-0-0-0-0-0-0-0-0-0-0-0-0-0-0---------0----|
Ab|--0-0-0-0-0-0-0-0-0-0-0-0-0-0-0-0-0-0-0---------0----|
Db|--0-0-0-0-0-0-0-0-0-0-0-0-0-0-0-0-0-0-0---------0----|
Suggest correction
Give kudos to tab author, rate the tab!
1 2 3 4 5
comments
print report bad tab
2 comments total.
0 reply
Epic Noob 190 Jun 17, 2010 03:04 PM

It's perfect man! Great work.

Freakin' love playing this chunky southerncore.

0 reply
SmoothJr 31 Sep 18, 2014 09:52 PM

Hey, thanks!

Gotta love classic Memphis May Fire!

guest
You may want to rate the tab now too:
select rating
Wanna post a correction for this tab? Suggest correction