Oops, an error
Loading. Please wait.

Conjunctions Conjunctions Everybody Loves Them Tab

1,831 views 1 this week
5 commentsread comments
1 2 3 4 5
worth learning
x 5
add to favorites
launch autoscroll
font size
0
reset
how to read this tab
guitar tuner
Tab Pro tools
  • play this tab
  • loop segment
  • change instrument
  • show fretboard
  • metronome
Autoscroll
slow
fast
+/-
esc
set tempo
stop
Contributor
Tuning
C# G# C# F# A# D#
|                                                                   |
|Memphis May Fire - Conjunctions, Conjunctions, Everybody Loves Them|
|___________________________________________________________________|

Heavy Dist.


 D#|--------------------------------------------------|
 A#|-------------------------------------------7------|
 F#|-------------------------------------------10-----|
 C#|--------------------------------------------------|
 G#|-----------5---------5-----------5----------------|
 C#|----0h3h5p3-----0h3-5-------3h5p3----0h3-5--------|

 D#|--------------------------------------------------|
 A#|--------------------------------------------------|
 F#|--------------------------------------------------|
 C#|--------------------------------------------------|
 G#|-----------5---------5-----------5--6-5-3---------|
 C#|----0h3h5p3-----0h3-5-----3h5p3-----6-5-3---------| x2

Then this (do it faster and it i'll sound good)

 D#|-----------------------|
 A#|-----------------------|
 F#|-----------------------|
 C#|-----------------------|
 G#|--6p5p3p0-3h5p3p0------|
 C#|-----------------------|

Again this, but just one time

 D#|--------------------------------------------------|
 A#|-------------------------------------------7------|
 F#|-------------------------------------------10-----|
 C#|--------------------------------------------------|
 G#|-----------5---------5-----------5----------------|
 C#|----0h3h5p3-----0h3-5-------3h5p3----0h3-5--------|

 D#|--------------------------------------------------|
 A#|--------------------------------------------------|
 F#|--------------------------------------------------|
 C#|--------------------------------------------------|
 G#|-----------5---------5-----------5--6-5-3---------|
 C#|----0h3h5p3-----0h3-5-----3h5p3-----6-5-3---------|

Then this

 D#|--------------------------------------------------|
 A#|----6-6------6-6-6-6-6-6----------6-6-6-6-6-6-----|
 F#|----9-9------9-9-9-9-9-9----------9-9-9-9-9-9-----|
 C#|--------------------------------------------------|
 G#|---------0----------------0-0-0-------------------|
 C#|---------0----------------0-0-0-------------------|
            P.M.               P.M.
 D#|--------------------------------------------------|
 A#|---7--7--7--7--7--7---------7--7--7--7--7--7------|
 F#|---10-10-10-10-10-10--------10-10-10-10-10-10-----|
 C#|--------------------------------------------------|
 G#|-0--------------------0-0-0--------------------1/-|
 C#|-0--------------------0-0-0--------------------1/-|
    P.M.                   P.M.

 D#|--------------------------------------------------|
 A#|-----6-6-6-6-6-6----------6-6-6-6-6-6-------------|
 F#|-----9-9-9-9-9-9----------9-9-9-9-9-9-------------|
 C#|--------------------------------------------------|
 G#|------------------0-0-0---------------------------|
 C#|------------------0-0-0---------------------------|
                       P.M.
 D#|---------------------------------------------------|
 A#|---7--7--7--7--7--7---------7--7--7--7--7--7-------|
 F#|---10-10-10-10-10-10--------10-10-10-10-10-10------|
 C#|---------------------------------------------------|
 G#|-0--------------------0-0-0--------------------12\-|
 C#|-0--------------------0-0-0--------------------12\-|
    P.M.                   P.M.

Pre-Solo

 D#|-------------------------------------------------|
 A#|-------------------------------------------------|
 F#|-------------------------------------------------|
 C#|-------------------------------------------------|
 G#|--3333333333333333--55--0000000000000000---------|
 C#|--3333333333333333--55--0000000000000000---------|x2

End on

 D#|-----|
 A#|-----|
 F#|-----|
 C#|--0--|
 G#|--0--|   Let it ring, but muted
 C#|--0--|
     P.M.

Solo (it's not 100% accurrate, sorry)

 D#|-(almost full)-----------------------------------|
 A#|------b9-----------------------------------------|
 F#|------b12----10~--9h10h12p10-7h9p7/5-5*----------|
 C#|-------------------------------------------------|
 G#|-------------------------------------------------|
 C#|-------------------------------------------------|

 D#|--0h10h12p10--10----------------------------------------------|
 A#|-------------12-12---10-7-9-----------------------------------|
 F#|-------------------7*------7*-9h10h12p10p9-7h9p7--7-----------|
 C#|------------------------------------------------10-10-9-7-----|
 G#|---------------------------------------------------------10-8~|
 C#|--------------------------------------------------------------|

Pre-Interlude

 D#|---------------------------------------------------------------|
 A#|-------------------------------------------------------------8-|
 F#|-------------------------------------------------------------11|
 C#|---------------------------------------------------------------|
 G#|-0h2h3-0h2h3-0h2h3-5-0h2h3-0h2h3-0h2h3-5-0h2h3-0h2h3-0h2h3-5---|
 C#|---------------------------------------------------------------|


 D#|---------------------------------------------------------------|
 A#|---------------------------------------------------------------|
 F#|---------------------------------------------------------------|
 C#|---------------------------------------------------------------|
 G#|-0h2h3-0h2h3-0h2h3-5-0h2h3-0h2h3-0h2h3-5-0h2h3-0h2h3-0h2h3-5---|
 C#|------------------------------------------------------------3~-|  repeat
                                                           from the bigining

Interlude (Clean)

There are 3 chords, im not sure of one if it's right or not
and figure out the strumming and time of each one it's easy. Play it just
one time

 D#|--0--|--0--|--0-----------------------------|
 A#|--10-|--6--|--10--|Im not sure of this one--|
 F#|--10-|--7--|--10----------------------------|
 C#|--8--|--7--|--0-----------------------------|
 G#|--8--|--0--|--8-----------------------------|
 C#|-(8)-|--0--|--10----------------------------| x1

then

 D#|--0--|
 A#|--10-| keep playing it until it comes with distortion and play it pretty
 F#|--10-| fast
 C#|--8--|
 G#|--8--|
 C#|-(8)-|

Then (with distortion)

 D#|--0--|--0--|--0---|
 A#|--10-|--6--|--10--|
 F#|--10-|--7--|--10--|
 C#|--8--|--7--|--0---|
 G#|--8--|--0--|--8---|
 C#|-(8)-|--0--|--10--|

 D#|--0--|--0--|--0---|
 A#|--10-|--6--|--10--|
 F#|--10-|--7--|--10--|
 C#|--8--|--7--|--8---|
 G#|--8--|--0--|--8---|
 C#|-(8)-|--0--|-(8)--|  all this x2, figured out the strumig, its almost the
                                                              same clean part

End on
 D#|-------|
 A#|-------|
 F#|-------|
 C#|-------|
 G#|-3653--|
 C#|-3653--|

Pre-Outro

 D#|-------------------------------------------------|
 A#|---9---------------------------------------------|
 F#|---12--------------------------------------------|
 C#|-------------------------------------------------|
 G#|-00---000-0-0------------------------------------|
 C#|-00---000-0-0--3~--0h5h6p0-0h3h5p0---------------|
    P.M.  P.M.P.M.      (do it fast)

 D#|-------------------------------------------------|
 A#|---9---------------------------------------------|
 F#|---12--------------------------------------------|
 C#|-------------------------------------------------|
 G#|-00---000-0-0------------------------------------|
 C#|-00---000-0-0--3~--0h5h7p0-0h3h4p0---------------|
    P.M.  P.M.P.M.      (do it fast)

 D#|-------------------------------------------------|
 A#|---9---------------------------------------------|
 F#|---12--------------------------------------------|
 C#|-------------------------------------------------|
 G#|-00---000-0-0------------------------------------|
 C#|-00---000-0-0--3~--0h5h6p0-0h3h5p0---------------|
    P.M.  P.M.P.M.      (do it fast)

 D#|-------------------------------------------------|
 A#|---9---------------------------------------------|
 F#|---12--------------------------------------------|
 C#|-------------------------------------------------|
 G#|-00---000-0-0------56----------------------------|
 C#|-00---000-0-0--3~--56----------------------------|
    P.M.  P.M.P.M.

 D#|-------------------------------------------------|
 A#|---9---------------------------------------------|
 F#|---12--------------------------------------------|
 C#|-------------------------------------------------|
 G#|-00---000-0-0------------------------------------|
 C#|-00---000-0-0--3~--0h5h6p0-0h3h5p0---------------|
   (Play  P.M.P.M.      (do it fast)
  it hard)

D#|----------------------------------------------------|
 A#|---9-----------------------------------------------|
 F#|---12----------------------------------------------|
 C#|---------------------------------------------------|
 G#|-00---000-0-0--------------------------------------|
 C#|-00---000-0-0--3~--0h5h7p0-0h3h4p0-----------------|
    P.M.  P.M.P.M.      (do it fast)

 D#|-------------------------------------------------|
 A#|---9---------------------------------------------|
 F#|---12--------------------------------------------|
 C#|-------------------------------------------------|
 G#|-00---000-0-0------------------------------------|
 C#|-00---000-0-0--3~--0h5h6p0-0h3h5p0---------------|
    P.M.  P.M.P.M.      (do it fast)

D#|--------------------------------------------------------|
 A#|---9---------------------------------------------------|
 F#|---12--------------------------------------------------|
 C#|-------------------5---5-------------------------------|
 G#|-00---000-0-0------5-6-5-6-----------------------------|let it ring
 C#|-00---000-0-0--3~----6---6-----------------------------|those sixs
    P.M.  P.M.P.M.

 D#|------------|
 A#|------------| the slide down
 F#|------------|it got to be
 C#|------------| more strong      or you can do this
 G#|-1/12\1-----|                after the 3 hi-hat thing.
 C#|-1/12\1-----|               in a video on youtube goes like that
                                        and it sound pretty good
  (optional)
 D#|---------|
 A#|--H5-----|
 F#|--H5-----|
 C#|---------|
 G#|---------|
 C#|---------|

Outro

 D#|--------------------------------------------------|
 A#|-------------------------------------------7------|
 F#|-------------------------------------------10-----|
 C#|--------------------------------------------------|
 G#|-----------5---------5-----------5----------------|
 C#|----0h3h5p3-----0h3-5-------3h5p3----0h3-5--------|

 D#|--------------------------------------------------|
 A#|--------------------------------------------------|
 F#|--------------------------------------------------|
 C#|--------------------------------------------------|
 G#|-----------5---------5-----------5--6-5-3---------|
 C#|----0h3h5p3-----0h3-5-----3h5p3-----6-5-3---------|


 D#|-------------------------------------------|
 A#|-------------------------------------------|
 F#|-------------------------------------------|
 C#|-------------------------------------------|
 G#|-0-0-0-0-0-0-0-0-0-000000000000000-0-0-0---|let it ring
 C#|-0-0-0-0-0-0-0-0-0-000000000000000-0-0-0---|

Ends on


 D#|---|
 A#|---|
 F#|---|
 C#|-0-|
 G#|-0-|
 C#|-0-|


That's all, pretty simple huh ?
hugs to my friend andres, who help me to do this, enjoy

http://www.myspace.com/memphismayfire !!
comments
print report bad tab
5 comments total. Showing first comments.
+2 reply
Untamed_Horizon wrote on April 9 2008, 09:56 pm

lol and hugs to you too man, thanx!

-1 reply
ducksonguitars8 wrote on April 19 2008, 10:27 pm

sorry, but this is actually almost all wrong.
i would tab this, but i don't have the attention span.
but just so you know that lick after the intro x 2 goes

D#|------------------|
A#|------------------|
F#|------------------|
C#|--3p0-------------|
G#|------3p0p5p3-----|
C#|--------------3p5-|

100% i know thats right.
and for the intro is

D#|----------------------------------------------|
A#|--------------------------------------------6-|
F#|--------------------------------------------9-|
C#|----------------------------------------------|
G#|--------5----------3--5-------5----------3----|
C#|--0-5p3----0h3h5p3-------0-5p3---0h3h5p3------|

try that, i think it sounds reall good, just let me know if this helps. thank you. you had very close tabs though.
=DD

-1 reply
ducksonguitars8 wrote on April 19 2008, 10:29 pm

wait, sorry, i had a typo, lic goes like this:

D#|------------------|
A#|------------------|
F#|------------------|
C#|--3p0-------------|
G#|------3p0p5p3-----|
C#|--------------5p3-|

sorry. =DD

I want to post or [tab]
guest
You may want to rate the tab now too:
select rating
Please do not post tabs as comments. Select "correction" instead!