Oops, an error
Loading. Please wait.

Cowbells Making A Comback Bass Tab

326 views 1 this week
no commentswrite comment
1 2 3 4 5
please rate
add to favorites
launch autoscroll
font size
0
reset
guitar tuner
Tab Pro tools
  • play this tab
  • loop segment
  • change instrument
  • show fretboard
  • metronome
Autoscroll
slow
fast
+/-
esc
set tempo
stop
Contributor
Difficulty
Tuning
intermediate
C# G# C# F# A# D#
Cowbells making a comeback (Bass Tab) tuning drop C# = G#, D#, A#, D#


Intro-Start when singing starts.
F#|-------------------------------------|
C#|-------------------------------------| Play until you get to 0:35
G#|----------3-0-5-5----------3-0-5-5---|
C#|----0-3-5------------0-3-5-----------|

Hold this note at 0:35. (Let it ring out)
F#|---------------------------|
C#|---------------------------|
G#|----5~~~-------------------|
C#|---------------------------|


0:54 - 1:13
F#|--------------------------|
C#|--------------------------|
G#|---5x8-—3x8--0x8--1x8-----|
C#|--------------------------|

1:13 – 1:53
F#|------|-----|----|---|----|
C#|------|-----|----|---|----|
G#|------|-----|----|---|----|
C#|-0~~--|-0~~-|-10~|-7-|-8--|


1:53 – 2:12
F#|-------------------------------------------|
C#|-------------------------------------------|
G#|-------------------------------------3-----|
C#|-0---------------00-----------00-0---------|
                                .. .
F#|----------------------------------------------|
C#|----------------------------------------------|
G#|----------------------------------------------|
C#|-0---------------00------------12\------------|
    .                             

2:12 – 2:17
F#|---------------------------------------|
C#|---------------------------------------|
G#|---------------------------------------|
C#|-----5x8----7x8-------------12\--------|

(guitar plays on its own until 2:27)

2:27 – 2:42
F#|-------------------------------------|
C#|-------------------------------------|  
G#|----------3-0-5-5----------3-0-5-5---|
C#|----0-3-5------------0-3-5-----------|


2:42 – 3:01
D#|----|------|-----|------|-----|
A#|----|------|-----|------|-----|
F#|----|------|-----|------|-----|
C#|----|------|-----|------|-----|
G#|----|------|-----|------|-----|
C#|-0x8|-10x8-|-7x8-|-8x8--|-7x8-| (x2)








3:01 – 3:31
F#|-------------------------------------------------|
C#|-------------------------------------------------|
G#|-------------------------------------------------|
C#|--1010-------1010-----------0-3-5-5\--5-5--------|

F#|-------------------------------------------------|
C#|-------------------------------------------------|
G#|-------------------------------------------------|
C#|--1010-------1010-----------0-3-5-5\--5-5----10\-|

F#|-------------------------------------------------|
C#|-------------------------------------------------|
G#|--------------------------------------------3----|
C#|--1010-------1010-----------0-3-5-5~~~~~---------|



3:31 – 3:49
A#|----|------|-----|------|-----|
F#|----|------|-----|------|-----|
C#|----|------|-----|------|-----|
G#|----|------|-----|------|-----|
C#|-0x8|-10x8-|-7x8-|-8x8--|-7x8-| (x2)

3:50 – 4:09 (This time just play single notes and hold them)
D#|----|------|-----|------|-----|
A#|----|------|-----|------|-----|
F#|----|------|-----|------|-----|
C#|----|------|-----|------|-----|
G#|----|------|-----|------|-----|
C#|-0--|-10---|-7---|-8----|-7---| 

(at 4:10 only the guitar plays the chords once round until 4:19)


Finally, I think this is the rhythm… something on the lines of that ^_^)
F#|----------------------------------|
C#|----------------------------------|
G#|----------------------------------|
C#|-0------0-00---0-00----0-00-------|   (x2)
             ..     ..      ..

ALL DONE! 

Any questions just email me.
comments
We did not receive enough feedback on this tab! Please rate:
print report bad tab
1 2 3 4 5
I want to post or [tab]
guest
You may want to rate the tab now too:
select rating
Please do not post tabs as comments. Select "correction" instead!