Oops, an error
Loading. Please wait.

Ghost In The Mirror Bass Tab

version 1
version 1

Whole song

Interactive

2,019 views 1 this week
no commentswrite comment
1 2 3 4 5
please rate
add to favorites
launch autoscroll
font size
0
reset
guitar tuner
Tab Pro tools
  • play this tab
  • loop segment
  • change instrument
  • show fretboard
  • metronome
×
Best way to learn
"Ghost In The Mirror"
Autoscroll
slow
fast
+/-
esc
set tempo
stop
Contributor
Tuning
C G C F A D
0:08
F|------------------|
C|------------------|
G|------------------|
C|-32-3~~~~32-3~~~~-|

0:17
F|-------------------------------------------------------------------------|
C|-------------------------------------------------------------------------|
G|----------------------------------------------66-67632----------66-67632-|
C|-44444444-44444444-44444444-44444444-33333333----------33333333----------|

0:25
F|------------------------------------------------------------------|
C|------------------------------------------------------------------|
G|------------------------------0232--------------------------------|
C|-44444444-444444---44444444-44----65-/10-9-8-6-2222-/10-9-8--6-22-|

0:34
F|-------------------------------------------------------------------------|
C|-------------------------------------------------------------------------|
G|--------------------------------------------------------------------2356-|
C|-23-3--33-3-35653-6568652-3-3--33-3-35653-/15\--3-3--33-3-33563-8686-----|

0:46
F|---------------------------------------------------|
C|---------------------------------------------------|
G|---------------------6767---------------343----5-6-|
C|-3-3--33-3-35653-9896------3-3--33-3-365---633-----|

0:54
F|------------------------|
C|------------------------|
G|-----6~~~74~~~3~1~------|
C|-3~~~--------------2222-|

1:02
F|-----------------------------------------------------|
C|-----------------------------------------------------|
G|------------------4-4-4-3-1-1-1-1-1-3-1-1-1-11-3-1---|
C|-3-3-3-3-3-3/11------------------------------------6-|

1:11
F|----------------------------------------------|-------------|
C|----------------------------------------------|-------------|
G|-----------3-4-4-4-4-4-4-3-3-3-3-3-3/15-15-15-|-13-15-10-12-|
C|-3-3-3-3-3------------------------------------|-------------|

1:19
F|------------------------------------------------------------|
C|------------------------------------------------------------|
G|------------------------------------------------------------|
C|-3-3-3-3-3-3/11-11-11-11-11-11\8-8-8-8-8-10-8-8-8-88-10-8-6-|

1:27
F|--------------------------------------------------------------------|
C|--------------------------------------------------------------------|
G|--------------------------------------------------------------------|
C|-3-3-3-3-3-3/11-11-11-11-11-11\10-10-10-10-10-10-10-10-10-10-10-10\-|

1:36
F|--------------------------------------------------|
C|--------------------------------------------------|
G|------------------------2-3-------------------3~~-|
C|-\3-10\----32-3\-----23-----3~~~2-3~~~32-3~~~-----|

1:57
F|---------------------------------------------------------------------------|
C|-----------------10---------------------------------10-----------/10-8r-6r-|
G|-------1-3-4-6-7----10-7-6-7--------------1-3-4-6-7----10-7-6-7\-----------|
C|-3-5-6-----------------------10-8-6-3-5-6----------------------------------|

2:07
F|--------------------------------------------------|
C|--------------------------------------------------|
G|--------------------------------------------------|
C|-3-3--63636-3--636381063-3--63636-3-3-------------|

2:15
F|---------------------------------------------------|
C|--------------1086565------------------------------|
G|---------------------6-----------------------------|
C|-3-3--63636-3------------3-3253652-3--8-10-6-3-----|

2:26
F|--------------------------------------------------|----------|
C|--------------------------------------------------|----------|
G|--------------------------------------------------|----------|
C|-3-3-3-3-3-3/11-11-11-11-11-11\8-8-8-8-8-10-8-8-8-|-8-10-8-6-|

2:34
F|----------------------------------------------------|-------------------|
C|----------------------------------------------------|-------------------|
G|------------------------------/3-3-3-3-3-3/15-15-15-|-15141516-14131415-|
C|-3-3-3-3-3-3/11-11-11-11-11-11----------------------|-------------------|

2:43
F|--------------------------------------------------|----------|
C|--------------------------------------------------|----------|
G|--------------------------------------------------|----------|
C|-3-3-3-3-3-3/11-11-11-11-11-11\8-8-8-8-8-10-8-8-8-|-8-10-8-6-|

1:27
F|----------------------------------------------------------------------|
C|----------------------------------------------------------------------|
G|----------------------------------------------------------------------|
C|-3-3-3-3-3-3/11-11-11-11-11-11\10-10-10-10-10-10-10-10-10-10-10-10\3~-|

3:08
F|------------------------------------------|
C|------------------------------------------|
G|-----------------------------23---23---23-|
C|-3-3-3-3-3-3-3-3-3-3-3-3-3-32---32---32---|

3:18
F|-------------------------------------------|
C|-------------------------------------------|
G|-------------------------------------------|
C|-3~/15-3-3-3~/15-3-3-3~/15-3-3-3~/15-3-3---|

3:28
F|------------------------------------------------------------------|
C|------------------------------------------------------------------|
G|-------------------------------4-6--------------------------------|
C|-3-3-3~/15-3-3-3~/15-3-3-3~/15-----10-8-10-9-7-9-8-6-8-3-3/15-15~-|
Tabbed by Dave Vucko
comments
We did not receive enough feedback on this tab! Please rate:
print report bad tab
1 2 3 4 5
I want to post or [tab]
guest
You may want to rate the tab now too:
select rating
Please do not post tabs as comments. Select "correction" instead!