Oops, an error
Loading. Please wait.

The Abandoned Bass Tab

version 2
version 2

Whole song

Interactive

408 views 1 this week
no commentswrite comment
1 2 3 4 5
please rate
add to favorites
launch autoscroll
font size
0
reset
guitar tuner
Autoscroll
slow
fast
+/-
esc
set tempo
stop
Help us to improve Ultimate-Guitar.com Take our survey!
×
Author
Difficulty
Tuning
intermediate
C# G# C# F# A# D#
Title: The Abandoned
Artist: Memphis May Fire
Album: The Hollow
Words: Memphis May Fire
Music: Memphis May Fire
Copyright: Memphis May Fire


Legend
L - tied note
x - dead note
h - hammer on/pull off
b - bend
s - slide
~ - vibrato
g - ghost note
> - accentuated note
t - trill
M - palm mute
. - staccato
P - popping (bass)
S - slapping (bass)
+ - tapping
W - wide vibrato
< - fade in
w - whammy bar
= - tremolo picking
v - brush up
^ - brush down
V - pick stroke up
n - pick stroke down


F#|----------------|----------------|----------------|----------------|
C#|----------------|----------------|----------------|----------------|
G#|----------------|----------------|----------------|----------------|
C#|----------------|----------------|----------------|----------------|


----------------------------------------------------|
----------------------------------------------------|
--0.----------------------------0-----0--0-----0----|
----------------------------------------------------|


--------------------------------------------------------------------------------|
--------------------------------------------------------------------------------|
--0.----------------------------------------------------------0-----------0--0--|
--------------------------------------------------------------------------------|


--------------------|----------------------------------------------------|
--------------------|----------------------------------------------------|
0-----------0-------|--0.----------------------------0-----0--0-----0----|
--------------------|----------------------------------------------------|


----------------------------------------------------|
----------------------------------------------------|
--0.----------------------------0--0--3s----2-------|
----------------------------------------------------|


----------------------------------------------------|
----------------------------------------------------|
--0.----------------------------0-----0--0-----0----|
----------------------------------------------------|


--------------------------------------------------------------------------------|
--------------------------------------------------------------------------------|
--0.----------------------------------------------------------0-----------0--0--|
--------------------------------------------------------------------------------|


--------------------|----------------------------------------------------|
--------------------|----------------------------------------------------|
0-----------0--0----|--0.----------------------------0-----0--0-----0----|
--------------------|----------------------------------------------------|


--------------------------------------------------------------------------------|
--------------------------------------------------------------------------------|
--0.----------------------------------------------------------0-----0-----0-----|
--------------------------------------------------------------------------------|


--------------------|----------------------------------------------------|
--------------------|----------------------------------------------------|
0-----0--0--0--0----|--0.----------------------------0-----0--0-----0----|
--------------------|----------------------------------------------------|


--------------------------------------------------------------------------------|
--------------------------------------------------------------------------------|
--0.----------------------------------------------------------0-----------0--0--|
--------------------------------------------------------------------------------|


--------------------|----------------------------------------------------|
--------------------|----------------------------------------------------|
0-----------0-------|--0.----------------------------0-----0--0-----0----|
--------------------|----------------------------------------------------|


----------------------------------------------------|
----------------------------------------------------|
--0.----------------------------0--0--3s----2-------|
----------------------------------------------------|


----------------------------------------------------|
----------------------------------------------------|
--0.----------------------------0-----0--0-----0----|
----------------------------------------------------|


--------------------------------------------------------------------------------|
--------------------------------------------------------------------------------|
--0.----------------------------------------------------------0-----------0--0--|
--------------------------------------------------------------------------------|


--------------------|----------------------------------------------------|
--------------------|----------------------------------------------------|
0-----------0--0----|--0.----------------------------0-----0--0-----0----|
--------------------|----------------------------------------------------|


----------------|----------------------------------------------------|
--------3s-2----|--------------------------0-------------------------|
--0.------------|--0--------0--------0-------------------------------|
----------------|----------------------------------------------------|


----------------------------------------------------|
----------------------------------------------------|
----------------------------------------------------|
--3--------3--------3-----5-------------------------|


----------------------------------------------------|----------|
--------------------------0-------------------------|----------|
--0--------0--------0-------------------------------|--2--0----|
----------------------------------------------------|----------|


----------------------------------------------------|
--------------------------0-------------------------|
--0--------0--------0-------------------------------|
----------------------------------------------------|


----------------------------------------------------|
----------------------------------------------------|
----------------------------------------------------|
--3--------3--------3-----5-------------------------|


----------------------------------------------------|
--------------------------0-------------------------|
--0--------0--------0-------------------------------|
----------------------------------------------------|


----------------------------|
----------------------------|
----------------------------|
--2-----2--2--2--2--2.------|


----------------------------------------------------|
----------------------------------------------------|
--0--0--0--0--------0--0--0-----0--0--0-----0-------|
----------------------------------------------------|


----------------------------------------------------|
----------------------------------------------------|
----------------------------------------------------|
--5--5--5--5--------5--5--5-----5--5--5-----5-------|


----------------------------------------------------|
----------------------------------------------------|
----------------------------------------------------|
--3--------3--------3-----3-----------3-------------|


----------------------------------------------------|
----------------------------------------------------|
----------------------------------------------------|
--3--------3--------3-----3-----------3-------------|


----------------------------------------------------|
----------------------------------------------------|
--0--0--0--0--------0--0--0-----0--0--0-----0-------|
----------------------------------------------------|


----------------------------------------------------|
----------------------------------------------------|
----------------------------------------------------|
--5--5--5--5--------5--5--5-----5--5--5-----5-------|


----------------------------------------------------|
----------------------------------------------------|
----------------------------------------------------|
--3--------3--------3-----3-----------3-------------|


----------------------------------------------------|
----------------------------------------------------|
----------------------------------------------------|
--3--------3--------3-----3-----------3-------------|


----------------------------------------------------|
--0--------0--------0-----0-----------0-------------|
----------------------------------------------------|
----------------------------------------------------|


----------------------------------------------------|
----------------------------------------------------|
--3--------3--------3-----3-----------3-------------|
----------------------------------------------------|


----------------------------------------------------|
----------------------------------------------------|
--2--------2--------2-----2-----------2-------------|
----------------------------------------------------|


----------------------------------------------------|
----------------------------------------------------|
--0--------0--------0-----0-----------0-------------|
----------------------------------------------------|


----------------------------------------------------|
--0--------0--------0-----0-----------0-------------|
----------------------------------------------------|
----------------------------------------------------|


----------------------------------------------------|
----------------------------------------------------|
--3--------3--------3-----3-----------3-------------|
----------------------------------------------------|


----------------------------------------------------|
----------------------------------------------------|
----------------------------------------------------|
--2--------2--------2-----2-----------2-------------|


----------------------------------------------------|
----------------------------------------------------|
----------------------------------------------------|
--2--------2--------2-----2-----------2-------------|


----------------------------------------------------|
----------------------------------------------------|
--0.-------------------------------------0--0-------|
----------------------------------------------------|


----------------------------------------------------|
----------------------------------------------------|
--0.----------------------------------------0--0----|
----------------------------------------------------|


----------------------------------------------------|
----------------------------------------------------|
--0.-------------------------------------0--0-------|
----------------------------------------------------|


--------------------------------------------------------------------------------|
--------------------------------------------------------------------------------|
--0.----------------------------------------------------------------------0-----|
--------------------------------------------------------------------------------|


--------------------------------------------------------------------|
--------------------------------------------------------------------|
---0--------0--------0--------0-----0-----0-----0-----0-----0-------|
--------------------------------------------------------------------|


----------------------------------------------------|
----------------------------------------------------|
--0.-------------------------------------0--0-------|
----------------------------------------------------|


----------------------------------------------------|
----------------------------------------------------|
--0.----------------------------------------0--0----|
----------------------------------------------------|


----------------------------------------------------|----------------|
----------------------------------------------------|----------------|
--0.-------------------------------------0--0-------|--0.------------|
----------------------------------------------------|----------------|


----------------------------------------------------|
----------------------------------------------------|
--0.----------------------------0-----0--0-----0----|
----------------------------------------------------|


--------------------------------------------------------------------------------|
--------------------------------------------------------------------------------|
--0.----------------------------------------------------------0-----------0--0--|
--------------------------------------------------------------------------------|


--------------------|----------------------------------------------------|
--------------------|----------------------------------------------------|
0-----------0-------|--0.----------------------------0-----0--0-----0----|
--------------------|----------------------------------------------------|


----------------------------------------------------|
----------------------------------------------------|
--0.----------------------------0--0--3s----2-------|
----------------------------------------------------|


----------------------------------------------------|
----------------------------------------------------|
--0.----------------------------0-----0--0-----0----|
----------------------------------------------------|


--------------------------------------------------------------------------------|
--------------------------------------------------------------------------------|
--0.----------------------------------------------------------0-----------0--0--|
--------------------------------------------------------------------------------|


--------------------|----------------------------------------------------|
--------------------|----------------------------------------------------|
0-----------0--0----|--0.----------------------------0-----0--0-----0----|
--------------------|----------------------------------------------------|


----------------------------------------------------|
----------------------------------------------------|
--0-----0--0-----0--0-----3-------------------------|
--------------------------------------5-------------|


----------------------------------------------------|
----------------------------------------------------|
--0--0--0--0--------0--0--0-----0--0--0-----0-------|
----------------------------------------------------|


----------------------------------------------------|
----------------------------------------------------|
----------------------------------------------------|
--5--5--5--5--------5--5--5-----5--5--5-----5-------|


----------------------------------------------------|
----------------------------------------------------|
----------------------------------------------------|
--3--------3--------3-----3-----------3-------------|


----------------------------------------------------|
----------------------------------------------------|
----------------------------------------------------|
--3--------3--------3-----3-----------3-------------|


----------------------------------------------------|
----------------------------------------------------|
--0--0--0--0--------0--0--0-----0--0--0-----0-------|
----------------------------------------------------|


----------------------------------------------------|
----------------------------------------------------|
----------------------------------------------------|
--5--5--5--5--------5--5--5-----5--5--5-----5-------|


----------------------------------------------------|
----------------------------------------------------|
----------------------------------------------------|
--3--------3--------3-----3-----------3-------------|


----------------------------------------------------|
----------------------------------------------------|
----------------------------------------------------|
--3--------3--------3-----3-----------3-------------|


----------------------------------------------------|
--0--------0--------0-----0-----------0-------------|
----------------------------------------------------|
----------------------------------------------------|


----------------------------------------------------|
----------------------------------------------------|
--3--------3--------3-----3-----------3-------------|
----------------------------------------------------|


----------------------------------------------------|
----------------------------------------------------|
--2--------2--------2-----2-----------2-------------|
----------------------------------------------------|


----------------------------------------------------|
----------------------------------------------------|
--0--------0--------0-----0-----------0-------------|
----------------------------------------------------|


----------------------------------------------------|
--0--------0--------0-----0-----------0-------------|
----------------------------------------------------|
----------------------------------------------------|


----------------------------------------------------|
----------------------------------------------------|
--3--------3--------3-----3-----------3-------------|
----------------------------------------------------|


----------------------------------------------------|
--2--------2--------2-----2-----------2-------------|
----------------------------------------------------|
----------------------------------------------------|


----------------------------------------------------|
--0--0--2--2--------2--2--2-----------2-------------|
--------------2--2----------------------------------|
----------------------------------------------------|


----------------------------------------------------|
----------------------------------------------------|
-----------0--0--0--0--0--0--0--0.------------------|
----------------------------------------------------|


----------------------------------------------------|
----------------------------------------------------|
-----------0--0--0--0--0.----------0--0--0--0--0----|
----------------------------------------------------|


----------------------------------------------------|
----------------------------------------------------|
-----------0--0--0--0--0--0--0--0.------------------|
----------------------------------------------------|


----------------------------------------------------|
----------------------------------------------------|
-----------0--0--0--0--0.----------0--0--0--0--0----|
----------------------------------------------------|


----------------------------------------------------|
----------------------------------------------------|
--0--------0--0--0--0--0--0--0--0--0----------------|
----------------------------------------------------|


----------------------------------------------------|
----------------------------------------------------|
-----------0--0--0--0--0--0.-------0--0--0--0--0----|
----------------------------------------------------|


----------------------------------------------------|
----------------------------------------------------|
--0--------0--0--0--0--0--0--0--0--0----------------|
----------------------------------------------------|


----------------------------------------------------|
----------------------------------------------------|
-----------0--0--0--0--0--0.-------0--0--0--0--0----|
----------------------------------------------------|


--------------------------------------------------------------------------------|
--------------------------------------------------------------------------------|
--------------------------------------------------------------------------------|
--------------------------------------------------------------------------10s9s-|


--------------------|----------------------------------------------------|
--------------------|----------------------------------------------------|
--------------------|--0--0--0--0--------0--0--0-----0--0--0-----0-------|
8s-7s-6s-5s-4s-3----|----------------------------------------------------|


----------------------------------------------------|
----------------------------------------------------|
----------------------------------------------------|
--5--5--5--5--------5--5--5-----5--5s-10s-----------|


----------------------------------------------------|
----------------------------------------------------|
----------------------------------------------------|
--3--------3--------3-----3-----------3-------------|


----------------------------------------------------|
----------------------------------------------------|
----------------------------------------------------|
--3--------3--------3-----3-----------3-------------|


----------------------------------------------------|
----------------------------------------------------|
--0--0--0--0--------0--0--0-----0--0--0-----0-------|
----------------------------------------------------|


----------------------------------------------------|
--------------------------3s----2s----0-------------|
--------------------------------------------3-------|
--5--5--5--5--------5--5----------------------------|


----------------------------------------------------|
--3--------3--------3-----3-----------3-------------|
----------------------------------------------------|
----------------------------------------------------|


----------------------------------------------------|
--3--------3--------3-----2-----------3-------------|
----------------------------------------------------|
----------------------------------------------------|


----------------------------------------------------|
--0--------0----------------------------------------|
--------------------------0-----------0s------------|
--------------------5-------------------------------|


----------------------------------------------------|
----------------------------------------------------|
--3--------3--------3-----3-----------3-------------|
----------------------------------------------------|


----------------------------------------------------|
----------------------------------------------------|
--2--------2--------2-----2-----------2-------------|
----------------------------------------------------|


----------------------------------------------------|
----------------------------------------------------|
--0--------0--------0-----2-----------3-------------|
----------------------------------------------------|


----------------------------------------------------|
--0--------0--------0-----0-----------0-------------|
----------------------------------------------------|
----------------------------------------------------|


----------------------------------------------------|
----------------------------------------------------|
--3--------3--------3-----3-----------3-------------|
----------------------------------------------------|


----------------------------------------------------|
----------------------------------------------------|
--------------------------------------2s------------|
--2--------2--------2-----2-------------------------|


----------------------------------------------------|-------|-------|-------|
----------------------------------------------------|-------|-------|-------|
--7--------7--------7-----7-----------7-------------|--0L---|--0L---|--0L---|
----------------------------------------------------|-------|-------|-------|


-------|-------|-------||
-------|-------|-------||
--0L---|--0L---|--0----||
-------|-------|-------||
Suggest correction
Give kudos to tab author, rate the tab!
1 2 3 4 5
comments
print report bad tab
guest
You may want to rate the tab now too:
select rating
Please do not post tabs as comments. Select "correction" instead!