Oops, an error
Loading. Please wait.

The Decieved Tab

2,570 views 6 this week
no commentswrite comment
1 2 3 4 5
excellent!
x 1
add to favorites
launch autoscroll
font size
0
reset
how to read this tab
guitar tuner
Tab Pro tools
  • play this tab
  • loop segment
  • change instrument
  • show fretboard
  • metronome
Autoscroll
slow
fast
+/-
esc
set tempo
stop
Difficulty
Tuning
intermediate
C# G# C# F# A# D#
I'm pretty sure the song is in some funky version of Drop C# but for the sake of ease of
playability, I stuck with the normal Drop C#. This is NOT completely accurate, just a
version of the song that is damn close and sounds good when played with the song (Imo). 
To see a video of me playing most of the song as it is tabbed below go here: 
http://www.youtube.com/watch?v=nJuQ24w2TSA&list=UUvY_zrRsk4W0eQ05KADapYg&index=5&feature=plcp
but keep in mind that I didn't know anything after the second chorus when I recorded
that so everything after that will be tabbed differently in comparison to how I played it
in the video. Enjoy.

Tabbed by Brandon Gullion (for questions, please message or comment on youtube. Thanks.)

Tuning: Drop C#
D#
A#
F#
C#
G#
C#

Intro:

D#----------------------------------|
A#----------------------------------|
F#-7(x16)--5(x16)--14(x16)--12(x16--|
C#----------------------------------| [x2]
G#-5(x16)--3(x16)--12(x16)--10(x16--|
C#----------------------------------|

Second time through play the following afterwards:

D#---
A#---
F#---
C#-0-
G#-0-
C#-0-

Verse 1:

D#--------------------------------------------------------|
A#--------------------------------------------------------|
F#-------------5---------------------------5--------------|
C#-0-3-0-0---0---0-0-0-0---0-0--0-0-000--0---0-0----------|
G#-0-3-0-0---0-3-0-0-0-0---0-0--0-0-000--0-3-0-0-5-3------|
C#-0-3-0-0---0---0-0-0-0---0-0--0-0-000--0---0-0----5-3---|
       p p   p   p p p p   p p  p p ppp  p   p p

D#---------------------------------------------------------|
A#---------------------------------------------------------|
F#-------------5------------5------------------------------|
C#-0-3-0-0---0---0-0-0-0--0---0-0-0-0--0-------------------|
G#-0-3-0-0---0-3-0-0-0-0--0-3-0-0-0-0--0-------------------|
C#-0-3-0-0---0---0-0-0-0--0---0-0-0-0--0-10-10-7-7-9-9-5-5-|
       p p   p   p p p p  p   p p p p  p           h h h h

D#--------------------------------------------------|
A#--------------------------------------------------|
F#-------------5------------5/4/5-------------------|
C#-0-3-0-0---0---0-0-0-0--0-------0-0---------------|
G#-0-3-0-0---0-3-0-0-0-0--0-3/2/3-0-0---3p0-5-------|
C#-0-3-0-0---0---0-0-0-0--0-------0-0-0----0--0-3p0-|
       p p   p   p p p p  p       p p p    p  p

D#----------------------------------------------------|
A#----------------------------------------------------|
F#-----------5----------------------------------------|
C#-0-3-0-0-----0--0-0--0-0--0-0--0-0------------------|
G#-0-3-0-0---3-0--0-0--0-0--0-0--0-0------------------|
C#-0-3-0-0-----0--0-0--0-0--0-0--0-0--3-3-3-5-5-5-0-0-|
       p p     p  p p  p p  p p  p p

D#--------------------------------------------------------|
A#--------------------------------------------------------|
F#-------------5---------------------------5--------------|
C#-0-3-0-0---0---0-0-0-0---0-0--0-0-000--0---0-0----------|
G#-0-3-0-0---0-3-0-0-0-0---0-0--0-0-000--0-3-0-0-5-3------|
C#-0-3-0-0---0---0-0-0-0---0-0--0-0-000--0---0-0----5-3---|
       p p   p   p p p p   p p  p p ppp  p   p p

D#-------------------------------------------------------------|
A#-------------------------------------------------------------|
F#-------------5------------5----------------------------------|
C#-0-3-0-0---0---0-0-0-0--0---0-0-0-0--------------------------|
G#-0-3-0-0---0-3-0-0-0-0--0-3-0-0-0-0----3p0-5p0---------------|
C#-0-3-0-0---0---0-0-0-0--0---0-0-0-0--0----0---0-3p0-0-0-0-0--|
       p p   p   p p p p  p   p p p p  p    p   p

D#-------------------------------------------------------------------|
A#-------------------------------------------------------------------|
F#-------------------------------------------------------------------|
C#-------------------------------------------------0(x25)--000-0-0-0-|
G#-------------------3-5-----------------------3-5-0(x25)--000-0-0-0-|
C#-0-0-0-0---0--0-3-5----0-0-0-0---0-0-0-0--3-5----1(x25)--111-1-1-1-|
                                                   p       ppp p p p

D#-----------------------------------|
A#-----------------------------------|
F#-----------------------------------|
C#-0-0-0-0--0-0-0-0--0-0-0-0-0-0-0-0-|
G#-0-0-0-0--0-0-0-0--0-0-0-0-0-0-0-0-|
C#-0-0-0-0--0-0-0-0--0-0-0-0-0-0-0-0-|
   p p p p  p p p p  p p p p p p p p

Pre-chorus:

D#----------------------------------------------------------|
A#----------------------------------------------------------|
F#---------------3(x8)--------------------------------------|
C#-0(x8)--3(x8)--3(x8)--1(x8)--0(x8)--5(x8)--3(x8)--1(x8)--0|
G#-0(x8)--3(x8)--1(x8)--1(x8)--0(x8)--5(x8)--3(x8)--1(x8)--0|
C#-0(x8)--3(x8)---------1(x8)--0(x8)--5(x8)--3(x8)--1(x8)--0|

Chorus:

D#-------------------------------|
A#-------------------------------|
F#---------3---------------------| (listen for the strumming pattern. It
C#-0---3---3---1---0---5---3---1-|  changes halfway through the chorus.)
G#-0---3---1---1---0---5---3---1-|
C#-0---3-------1---0---5---3---1-|

Pre-verse:

D#----------------------------------|
A#----------------------------------|
F#----------------------------------|
C#----------------------------------|
G#---------------5------------------|
C#-0-000-------0--1-0---000--000--0-|
     pp                 pp   pp

Verse 2:

D#--------------------------------------------------------|
A#--------------------------------------------------------|
F#-------------5---------------------------5--------------|
C#-0-3-0-0---0---0-0-0-0---0-0--0-0-000--0---0-0----------|
G#-0-3-0-0---0-3-0-0-0-0---0-0--0-0-000--0-3-0-0-5-3------|
C#-0-3-0-0---0---0-0-0-0---0-0--0-0-000--0---0-0----5-3---|
       p p   p   p p p p   p p  p p ppp  p   p p

D#---------------------------------------------------------|
A#---------------------------------------------------------|
F#-------------5------------5------------------------------|
C#-0-3-0-0---0---0-0-0-0--0---0-0-0-0--0-------------------|
G#-0-3-0-0---0-3-0-0-0-0--0-3-0-0-0-0--0-------------------|
C#-0-3-0-0---0---0-0-0-0--0---0-0-0-0--0-10-10-7-7-9-9-5-5-|
       p p   p   p p p p  p   p p p p  p           h h h h

D#--------------------------------------------------|
A#--------------------------------------------------|
F#-------------5------------5/4/5-------------------|
C#-0-3-0-0---0---0-0-0-0--0-------0-0---------------|
G#-0-3-0-0---0-3-0-0-0-0--0-3/2/3-0-0---3p0-5-------|
C#-0-3-0-0---0---0-0-0-0--0-------0-0-0----0--0-3p0-|
       p p   p   p p p p  p       p p p    p  p

D#----------------------------------------------------|
A#----------------------------------------------------|
F#-----------5----------------------------------------|
C#-0-3-0-0-----0--0-0--0-0--0-0--0-0------------------|
G#-0-3-0-0---3-0--0-0--0-0--0-0--0-0------------------|
C#-0-3-0-0-----0--0-0--0-0--0-0--0-0--3-3-3-5-5-5-0-0-|
       p p     p  p p  p p  p p  p p

D#----------------------------------------------------------|
A#----------------------------------------------------------|
F#----------------------------------------------------------|
C#-0(x8)-8-7-0(x16)-5-7-0(x8)-5(x8)-8-7-5(x8)-3(x8)-0-1(x7)-|
G#-0(x8)-----0(x16)-----0(x8)-5(x8)-----5(x8)-3(x8)-0-1(x7)-|
C#-0(x8)-----0(x16)-----0(x8)-5(x8)-----5(x8)-3(x8)-0-1(x7)-|
   p         p          p     p         p     p     p p

Pre Chorus 2:

D#-----------------------------------------------------------------|
A#-----------------------------------------------------------------|
F#-----------------------------------------------------------------|
C#--------------------------------------------------7p0------------|
G#-----------------------------------------------------------------|
C#-0-0-0-0--0-0--0-0-0--0-0-0--0-0-0-0--0-0--0-0-0-----0-0-0-0-0-0-|

D#--------------------------------------------------------|
A#--------------------------------------------------------|
F#--------------------------------------------------------|
C#--------------------------------------------------------|
G#------------------------------------------------------5-|
C#-0-0--0-0-0--0-0-0--0-0-0-0--0-0--0-0-0-0--0-0---0-3-5--|

D#----------------------------------------|
A#----------------------------------------|
F#----------------------------------------|
C#----------------------------------------|
G#----------------------------------------|
C#-0-0--0-0-0--0-0-0---0-0-0-0-3-3-3-3-5/-|


Chorus:

D#-------------------------------|
A#-------------------------------|
F#---------3---------------------| (listen for the strumming pattern. It
C#-0---3---3---1---0---5---3---1-|  changes halfway through the chorus.)
G#-0---3---1---1---0---5---3---1-|
C#-0---3-------1---0---5---3---1-|


Bridge:

D#--------------------------------------------------------------------|
A#--------------------------------------------------------------------|
F#-7(x8)-8(x4)-6(x4)-7(x8)-8(x4)-6(x4)-7(x8)-8(x4)-6(x4)-8(x8)-10(x8)-|
C#--------------------------------------------------------------------|
G#-5(x8)-6(x4)-4(x4)-5(x8)-6(x4)-4(x4)-5(x8)-6(x4)-4(x4)-6(x8)-8(x8)--|
C#--------------------------------------------------------------------|

D#------------------------------------------------------------------|
A#-----------------------------6-6----------------------------------|
F#------------------------------------------------------------------|
C#-0--0------------0--0--0-0-0-3-3-0----0-0-9-9-------0-0-0000-0--0-|
G#-0--0------------0--0--0-0-0-----0----0-0----5-5----0-0-0000-0--0-|
C#-0--0----0--0-0--0--0--0-0-0-----0----0-0-------5-5-0-0-0000-0--0-|
                         p p                          p p pppp

D#-------------------------------------------------------------------|
A#------------------------------6-6----------------------------------|
F#-----------------------------------------------------10(x8)-7(x4---|5(x4)
C#-000-0-000-0--0---0--0--0-0-0-3-3-0--------------------------------|
G#-000-0-000-0--0---0--0--0-0-0-----0------------------8(x8)--5(x4---|3(x4)
C#-000-0-000-0--0---0--0--0-0-0-----0-0-0-0-0-0-0-0-0-0--------------|
   ppp p ppp p            p p p             p   p   p


End Chorus:


D#------------------------------|
A#------------------------------|
F#--------3---------------------| (listen for the strumming pattern. It
C#----3---3---1---0---5---3---1-|  changes halfway through the chorus.)
G#----3---1---1---0---5---3---1-|
C#----3-------1---0---5---3---1-|


D#---------------|
A#---------------|
F#---------3-----|
C#-0---3---3---5-|
G#-0---3---1---5-|
C#-0---3---- --5-|


Outro:

D#
A#
F#
C#-0-1-0-3----0-1-0-0-----0-1-0-1-1-0-1-0-0-----0-|
G#-0-1-0-3----0-1-0-0-----0-1-0-1-1-0-1-0-0-----0-|
C#-0-1-0-3-4v-0-1-0-0-----0-1-0-1-1-0-1-0-0-----0-|
comments
We did not receive enough feedback on this tab! Please rate:
print report bad tab
1 2 3 4 5
I want to post or [tab]
guest
You may want to rate the tab now too:
select rating
Please do not post tabs as comments. Select "correction" instead!