Oops, an error
Loading. Please wait.

Wanting More Tab

version 1
version 1

Whole song

  • Music video version, might not be album version.

Interactive

19 views 3 this week
no commentswrite comment
1 2 3 4 5
3 more votes to show rating
add to favorites
launch autoscroll
font size
0
reset
how to read this tab
guitar tuner
Autoscroll
slow
fast
+/-
esc
set tempo
stop
Help us to improve Ultimate-Guitar.com Take our survey!
×
Author
Difficulty
Tuning
intermediate
A# F A# D# G C
About this tab version
Music video version, might not be album version. Was this info helpful? Yes No
[Wanting More]
[Music Video]
[Memphis May Fire]

Tuning: Bb F Bb Eb G C
Playthrough: https://www.youtube.com/watch?v=Rae49-czNUI

[Riff 1] - [00:00 - [00:28] - [x2]
- ---------------------------------------------------------------------------------------------------
- ---------------------------------------------------------------------------------------------------
- ---------------------------------------------------------------------------------------------------
- -------3---6-------7---10-------8---11-------7---2-------------------------------------------------
- -0-0-0-3-0-6-0-0-0-7-0-10-0-0-0-8-0-11-0-0-0-7-0-2-------------------------------------1-1-1-4-4-4-
- -0-0-0-3-0-6-0-0-0-7-0-10-0-0-0-8-0-11-0-0-0-7-0-2-0-0-0-8p6h7-0-3-0-6-0-3-5-5-5-1-1-1-------------
PM .....   .   .....   .    .....   .    .....   .   .....       .   .   .

- ---------------------------------------------------------------------------------------------------
- ---------------------------------------------------------------------------------------------------
- ---------------------------------------------------------------------------------------------------
- -------3---6-------7---10-------8---11-------------------------------------------------------------
- -0-0-0-3-0-6-0-0-0-7-0-10-0-0-0-8-0-11-------------------6-6-6-5-5-5-3-3-3-4-4-4-0-0-0-8-8-8-7-7-7-
- -0-0-0-3-0-6-0-0-0-7-0-10-0-0-0-8-0-11-0-0-0-7-0-3-1-1-1-------------------------------------------
PM .....   .   .....   .    .....   .    .....   .

[Riff 2] - [00:28] - [00:42]
- ---------------------------------------------------------------------------------------------------
- ---------------------------------------------------------------------------------------------------
- ---------------------------------------------------------------------------------------------------
- ---------------------------------------------------------------------------------------------------
- -0-0-0-0---0---0---0---0---0---0-0-0---0---0---000-0-0---0-0-0-0-0---0---0---0-0-0-0---0---0-------
- -0-0-0-0---0---0---0---0---0---0-0-0---0---0---000-0-0---0-0-0-0-0---0---0---0-0-0-0---0---0-------
PM .................................................................................................

- ---------------------------------------------------------------------------------------------------
- ---------------------------------------------------------------------------------------------------
- ---------------------------------------------------------------------------------------------------
- ---------------------------------------------------------------------------------------------------
- -0-0-0-0---0---0---0---0---0---0-0-0---0---0---001-1-1---1-1-1-1-1---1-1-7-7-7---7-7-7-------------
- -0-0-0-0---0---0---0---0---0---0-0-0---0---0---001-1-1---1-1-1-1-1---1-1-7-7-7---7-7-7-------------
PM .................................................................................................

[Riff 3a] - [00:42] - [00:55]
- ---------------------------------------------------------------------------------------------------
- ---------------------------------------------------------------------------------------------------
- ---------------------------------------------------------------------------------------------------
- -0h5---------------------------------------------0h5-----------------------------------------------
- -------5p0h8---3h6-5-----------------------3-----------5p0h8---3h6-5-------------------------------
- -----0-------0------h8-0-0h3p0-8p0h7-0-5h6---0h8-----0-------0------h8-0-0h8-8-8-10/12-12-0-0-0----

- ---------------------------------------------------------------------------------------------------
- ---------------------------------------------------------------------------------------------------
- ---------------------------------------------------------------------------------------------------
- -0h5---------------------------------------------0h5-----------------------------------------------
- -------5p0h8---3h6-5-----------------------3-----------5p0h8---3h6-5-------------------------------
- -----0-------0------h8-0-0h3p0-8p0h7-0-5h6---0h8-----0-------0------h8-0-0h8-8-8-10/12-------------


[Riff 3b, Guitar 1 & 2] - [00:42] - [00:55]
- -------------------------------------------------------------------------------------------------
- -------------------------------------------------------------------------------------------------
- -------------------------------------------------------------------------------------------------
- -------0-----------------------------------------------------------------------------------0-----
- -0-0-0-0---------------------0-0-------0---------------------0-0-0-0-----------------0-0-0-0-----
- -0-0-0-0---------------------0-0-------0-------8-8-8-8-7-----0-0-0-0-----------------0-0-0-0-----
PM .....                       ...........                     .......                 .....
- -------------------------------------------------------------------------------------------------
- -------------------------------------------------------------------------------------------------
- -------------------------------------------------------------------------------------------------
- -------0-----------------------------------------------------------------------------------0-----
- -0-0-0-0---------------------0-0---0-------0---------0-0-0-0-------------------------0-0-0-0-----
- -0-0-0-0---------------------0-0---0-------0---------0-0-0-0-------------------------0-0-0-0-----
PM .....                       ...   .       .         .......                         .....


- -------------------------------------------------------------------------------------------------
- -------------------------------------------------------------------------------------------------
- -------------------------------------------------------------------------------------------------
- -------0-----------------------------------------------------------------------------------------
- -0-0-0-0---------------------0-0---0---0---0-----------------0-0-0-0-----0-0-0-0-0-0-------------
- -0-0-0-0---------------------0-0---0---0---0---8-8-8-8-7-----0-0-0-0-----0-0-0-0-0-0-------------
PM .....                       ...   .   .   .                 .......     ...........
- -------------------------------------------------------------------------------------------------
- -------------------------------------------------------------------------------------------------
- -------------------------------------------------------------------------------------------------
- -------0-----------------------------------------------------------------------------------------
- -0-0-0-0------0-0-0-0--------0-0---0---0---0---------0-0-0-0-------------0-0-0-0-0-0-------------
- -0-0-0-0------0-0-0-0-10p7h8-0-0---0---0---0---------0-0-0-0-------------0-0-0-0-0-0-------------
PM .....        .......        ...   .   .   .         .......             ...........


[Riff 4, Guitar 1 & 2] - [00:55] - [01:08]
- --------------------------------------------------------------------------------------------
- --------------------------------------------------------------------------------------------
- --------------------------------------------------------------------------------------------
- ------------5-----5h7p5---------------------------------------------8-----------7-----------
- -5----------------------8-----------8-----7-8---7-3-----------------------------------------
- --------------------------------------------------------------------------------------------
-
- --------------------------------------------------------------------------------------------
- --------------------------------------------------------------------------------------------
- --------------------------------------------------------------------------------------------
- -7----------------------8---------------------10--------------------------------5-----------
- -5(12x)-----------------8(12x)----------------10(18x)---------------------------5(6x)-------
- ------------------------8---------------------10--------------------------------5-----------


- ------------------------------------------------------------------------------------------------
- ------------------------------------------------------------------------------------------------
- --------------------------------------------------------------------------------6-----------7~--
- ------------5-----5h7p5---------------------------------------------7---------------------------
- -5----------------------8-----------8-----7-3---------------------------------------------------
- ------------------------------------------------------------------------------------------------
-
- --------------------------------------------------------------------------------------------
- --------------------------------------------------------------------------------------------
- --------------------------------------------------------------------------------------------
- -7----------------------8---------------------10---------------------7----------------------
- -5(12x)-----------------8(12x)----------------10(12x)----------------7(6x)------------------
- ------------------------8---------------------10---------------------7----------------------


[Riff 5] - [01:08] - [01:22]
- ---------------------------------------------------------------------------------------------------
- ---------------------------------------------------------------------------------------------------
- ---------------------------------------------------------------------------------------------------
- -------3---6-------7---10-------8---11-------7---2-------------------------------------------------
- -0-0-0-3-0-6-0-0-0-7-0-10-0-0-0-8-0-11-0-0-0-7-0-2-------------------------------------1-1-1-4-4-4-
- -0-0-0-3-0-6-0-0-0-7-0-10-0-0-0-8-0-11-0-0-0-7-0-2-0-0-0-8p6h7-0-3-0-6-0-3-5-5-5-1-1-1-------------
PM .....   .   .....   .    .....   .    .....   .   .....       .   .   .

- ---------------------------------------------------------------------------------------------------
- ---------------------------------------------------------------------------------------------------
- ---------------------------------------------------------------------------------------------------
- -------3---6-------7---10-------8---11-------------------------------------------------------------
- -0-0-0-3-0-6-0-0-0-7-0-10-0-0-0-8-0-11-------------------6-6-6-5-5-5-3-3-3-4-4-4-0-0-0-------------
- -0-0-0-3-0-6-0-0-0-7-0-10-0-0-0-8-0-11-0-0-0-7-0-3-1-1-1-------------------------------3-----2b----
PM .....   .   .....   .    .....   .    .....   .

the last note of this section, one guitar hits the 2b clean, one guitar does a pinch harmonic


[La La La] - [01:22] - [01:49]

[Riff 6a] - [01:49] - [02:06]
- ---------------------------------
- ---------------------------------
- ---------------------------------
- ---------------------------------
- -0-000-00000-0-000-0-000-0-000-0-
- -0-000-00000-0-000-0-000-0-000-0-
PM ...............................

- -----------------------------------------------------------------
- -----------------------------------------------------------------
- -----------------------------------------------------------------
- -----------------------------------------------------------------
- -0-000-00000-0-000-0-000-0-000-0-00000-0-00-00-000-0-000-0-000-0-
- -0-000-00000-0-000-0-000-0-000-0-00000-0-00-00-000-0-000-0-000-0-
PM ...............................................................

- -----------------------------------------------------------------
- -----------------------------------------------------------------
- -----------------------------------------------------------------
- ---------------------------------------------------------xxxxxx--
- -0-000-00000-0-000-0-000-0-000-0-00000-0-00-00-000-0-000-xxxxxx--
- -0-000-00000-0-000-0-000-0-000-0-00000-0-00-00-000-0-000-xxxxxx--
PM ...............................................................

[Riff 6b] - [01:52] - [02:06] - [2.5x]
- -------------------------------------------------------------
- -------------------------------------------------------------
- -18b-18hb-18br--18b-18hb-18br--18b-18hb-18br--18b-18hb-18br--
- -------------------------------------------------------------
- -------------------------------------------------------------
- -------------------------------------------------------------


[Riff 7, Guitar 1 & 2] - [02:06] - [02:36]
- --------------------------------------------------------------------------------------------------
- --------------------------------------------------------------------------------------------------
- --------------------------------------------------------------------------------------------------
- ------------------5-----5h7p5---------------------------------------------8-----------7-----------
- -3-----5----------------------8-----------8-----7-8---7-3-----------------------------------------
- --------------------------------------------------------------------------------------------------
-
- --------------------------------------------------------------------------------------------------
- --------------------------------------------------------------------------------------------------
- --------------------------------------------------------------------------------------------------
- -------7----------------------8---------------------10--------------------------------5-----------
- -------5(12x)-----------------8(12x)----------------10(18x)---------------------------5(6x)-------
- ------------------------------8---------------------10--------------------------------5-----------


- --------------------------------------------------------------------------------------------
- --------------------------------------------------------------------------------------------
- --------------------------------------------------------------------------------------------
- ------------5-----5h7p5---------------------------------------------7-----------5-----------
- -5----------------------8-----------8-----7-3-----------------------------------------------
- --------------------------------------------------------------------------------------------
-
- --------------------------------------------------------------------------------------------
- --------------------------------------------------------------------------------------------
- --------------------------------------------------------------------------------------------
- -7----------------------8---------------------10---------------------7----------------------
- -5(12x)-----------------8(12x)----------------10(12x)----------------7(12x)-----------------
- ------------------------8---------------------10---------------------7----------------------


- --------------------------------------------------------------------------------------------
- -6----------------------------------6-----5-6---5-8------------------8-6-------11--10-------
- ------------5-----------7------------------------------------------------9-6----------------
- --------------------------------------------------------------------------------------------
- --------------------------------------------------------------------------------------------
- --------------------------------------------------------------------------------------------
-
- --------------------------------------------------------------------------------------------
- --------------------------------------------------------------------------------------------
- --------------------------------------------------------------------------------------------
- -0----------------------8---------------------5----------------------7----------------------
- -0(12x)-----------------8(12x)----------------4(12x)-----------------7(6x)-------5(6x)------
- -0----------------------8--------------------------------------------7-----------5----------
PM                                                                                 ..........


- --------------------------------------------------------------------------------------------
- ------------10----------8--------------------------------------------8-----------10---------
- -7----------------------------------10----9-10--9-7-----------------------------------------
- --------------------------------------------------------------------------------------------
- --------------------------------------------------------------------------------------------
- --------------------------------------------------------------------------------------------
-
- --------------------------------------------------------------------------------------------
- --------------------------------------------------------------------------------------------
- --------------------------------------------------------------------------------------------
- -0----------------------8---------------------5----------------------10----------6----------
- -0(12x)-----------------8(12x)----------------5(12x)-----------------8(6x)-------4(6x)------
- -0----------------------8---------------------5---------------------------------------------


[Riff 8, Guitar 1 & 2] - [02:36] - [02:49]
- ---------------------------------------------------------------------------------------------------
- ---------------------------------------------------------------------------------------------------
- ---------------------------------------------------------------------------------------------------
- -0h5---------------------------------------------0h5-----------------------------------------------
- -------5p0h8---3h6-5-----------------------3-----------5p0h8---3h6-5-------------------------------
- -----0-------0------h8-0-0h3p0-8p0h7-0-5h6---0h8-----0-------0------h8-0-0h8-8-8-10/12-12-0-0-0----
-
- ---------------------------------------------------------------------------------------------------
- ---------------------------------------------------------------------------------------------------
- ---------------------------------------------------------------------------------------------------
- -0-------------------------------------------------------------------------------------------------
- -0-------------------------------------------------------------------------------------------------
- -0-------------------------------------------------------------------------------------------------


- ---------------------------------------------------------------------------------------------------
- ---------------------------------------------------------------------------------------------------
- ---------------------------------------------------------------------------------------------------
- -0h5---------------------------------------------0h5-----------------------------------------------
- -------5p0h8---3h6-5-----------------------3-----------5p0h8---3h6-5-------------------------------
- -----0-------0------h8-0-0h3p0-8p0h7-0-5h6---0h8-----0-------0------h8-0-0h8-8-8-10/12-12-0-0-0----
-
- ---------------------------------------------------------------------------------------------------
- ---------------------------------------------------------------------------------------------------
- ---------------------------------------------------------------------------------------------------
- -0-----------------------------------------------0-------------------------------------------------
- -0-----------------------------------------------0-------------------------------------------------
- -0-----------------------------------------------0-------------------------------------------------


[Riff 9a] - [02:49] - [03:02] - [x2]
- ---------------------------------------------------------------------------------------------------
- ---------------------------------------------------------------------------------------------------
- ---------------------------------------------------------------------------------------------------
- -0h5---------------------------------------------0h5-----------------------------------------------
- -------5p0h8---3h6-5-----------------------3-----------5p0h8---3h6-5-------------------------------
- -----0-------0------h8-0-0h3p0-8p0h7-0-5h6---0h8-----0-------0------h8-0-0h8-8-8-10/12-12-0-0-0----

[Riff 9b] - [02:49] - [03:02]
- ------------------------------------------------------------------------------------------------------
- ------------------------------------------------------------------------------------------------------
- ------------------------------------------------------------------------------------------------------
- -0-----------0-----------------------------------0-----------0-----------13p10h12---------------------
- -0-----------0-------------0-0-0---0---0---0---0-0-----------0-----------13p11h12---------------------
- -0-----------0-------------0-0-0---0---0---0---0-0-----------0-----------13p11h12-0h10p0-10p7h8-0h1p0-
PM                           .....................

- ------------------------------------------------------------------------------------------------------
- ------------------------------------------------------------------------------------------------------
- ------------------------------------------------------------------------------------------------------
- -0-----------0-----------------------------------0-----------0----------------------------------------
- -0-----------0-------------0-0-0---0---0---0---0-0-----------0----------------------------------------
- -0-----------0-------------0-0-0---0---0---0---0-0-----------0----------------------------------------
PM                           .....................

[Riff 10] - [03:02] - [03:15] - [x2]
- ---------------------------------------------------------------------------------------------------
- ---------------------------------------------------------------------------------------------------
- ---------------------------------------------------------------------------------------------------
- -0-----------0-----------------------------------0-----------0-------------------------------------
- -0-----------0-------------0-0-0---0---0---0---0-0-----------0-------------------------------------
- -0-----------0-------------0-0-0---0---0---0---0-0-----------0-------------------------------------
PM                           .....................

[Riff 7, Guitar 1 & 2] - [03:15] - [03:43]


[Symbols]

PM... Palm Mute notes with (...) under them
AP... Alternate Pick notes with (...) under them
h     Hammer On
p     Pull Off
[ ]   Harmonic
/     Slide Up
\     Slide Down
x     Dead Note
b     Bend
hb    Hold Bend
p     Pre-Bend
r     Release Bend
(x )  Play Notes x amount of times
~     Let Ring
/ 3 \ Notes are triplets (3 notes in the space of two)
w\    Whammy Bar Down
w/    Whammy Bar Up
T     Right Hand Tap

:)
Suggest correction
Give kudos to tab author, rate the tab!
1 2 3 4 5
comments
print report bad tab
guest
You may want to rate the tab now too:
select rating
Wanna post a correction for this tab? Suggest correction