Oops, an error
Loading. Please wait.

Its A Mistake Tab

version 1
version 1

Whole song

Interactive

16,296 views 33 this week
4 commentsread comments
1 2 3 4 5
accurate
x 9
add to favorites
launch autoscroll
font size
0
reset
how to read this tab
guitar tuner
Tab Pro tools
  • play this tab
  • loop segment
  • change instrument
  • show fretboard
  • metronome
×
Best way to learn
"Its A Mistake"
Autoscroll
slow
fast
+/-
esc
set tempo
stop
Contributor
INTRO:

(2nd guitar)

        Abm7               B/F#
e|---11--11--11-11-----11-11--11--11-------|
B|----0---0---0--0------0--0---0---0-------|
G|---11--11--11-11-----11-11--11--11-------| 6x
D|----9---9---9--9------9--9---9---9-------|
A|---11--11--11-11------9--9---9---9-------|
E|-----------------------------------------|

(1st.guitar)
e|---------11-----|
B|------9---------|
G|--11------------|
D|----------------|
A|----------------|
E|----------------|

(bass)
e|--------------------------------------------------------------------------|
B|--------------------------------------------------------------------------|
G|------------8h9--8h9--8-----------------------8-9-8-9--9/11\--------------|
D|---4-6-9----------------9--------4-6/9------------------------------------|
A|--------------------------7-6-7-------------------------------------------|
E|--------------------------------------------------------------------------|

VERSE:


(1st. guitar)
    Abm7                B/F#
e|--------------------------------------------------|
B|--------------------------------------------------|
G|------1---------1----------4------------4---------| 4x
D|------4---------4----------4------------4---------|
A|--------------------------------------------------|
E|---4--------4---------2------------2--------------|

(2nd. guitar)
        Abm7               B/F#
e|---11--11--11-11-----11-11--11--11-------|
B|----0---0---0--0------0--0---0---0-------|
G|---11--11--11-11-----11-11--11--11-------| 4x
D|----9---9---9--9------9--9---9---9-------|
A|---11--11--11-11------9--9---9---9-------|
E|-----------------------------------------|


(1st. guitar)
    E                 F#
e|---------------------------------------|
B|---------------------------------------|
G|-------1-------1-------3-------3-------|
D|-------2-------2-------4-------4-------| 4x
A|---------------------------------------|
E|---0--------0-------2-------2----------|

(2nd guitar can do chords or power chords)


CHORUS:

(1st. guitar)
e|---4--7--9--7----11--7--9--4---         ------------------|
B|---4--7--9--7----11--7--9--4---         ---4h5--4h5--4----|
G|---4--8--9--8----11--8--9--4---  2x     ---4----4----4----|
D|-------------------------------         ---4h6--4h6--4----|
A|-------------------------------         ------------------|
E|-------------------------------         ------------------|

(2nd. guitar)
        Abm7               B/F#
e|---11--11--11-11-----11-11--11--11-------|
B|----0---0---0--0------0--0---0---0-------|
G|---11--11--11-11-----11-11--11--11-------| 4x
D|----9---9---9--9------9--9---9---9-------|
A|---11--11--11-11------9--9---9---9-------|
E|-----------------------------------------|


(2nd verse is the same as 1st), chorus...

3RD VERSE:

(1st. guitar)
   Abm7              B/F#
e|-------------------------------0-------|
B|-----------0---------------------0-----|
G|-------1-----1-----------4-------------| 4x
D|-----4--4--------------4---4-----------|
A|---------------------------------------|
E|--4-----------------2------------------|

(2nd. guitar)
        Abm7               B/F#
e|---11--11--11-11-----11-11--11--11-------|
B|----0---0---0--0------0--0---0---0-------|
G|---11--11--11-11-----11-11--11--11-------| 4x
D|----9---9---9--9------9--9---9---9-------|
A|---11--11--11-11------9--9---9---9-------|
E|-----------------------------------------|


(1st guitar)
   E                    F#
e|-------------------------------2----------|
B|------------0----------------2---2--------|
G|-------1------1------------3------3-------| 4x
D|-----2---2------2--------4----------4-----|
A|------------------------------------------|
E|--0-------------------2-------------------|

chorus...

SOLO:

 (2nd guitar)

e|------------0--------------0---------------0--------0------|
B|----------0---0----------0---0-----------0--0------0--0----|
G|--------8--------------8---------------6---------6---------|  4x
D|-----9---------------9---------------7----------7----------|
A|-----------------------------------------------------------|
E|-7----------------6---------------5-----------4------------|

(1st guitar)
e|--------------------------------------------------------------------------|
B|--7h9-7---7/11--11h14-10--9b^b^b^b^--------4-4-------4---6b^b^b^b^b^-4----|
G|---------------------------------------4h6-------4h6----------------------|
D|--------------------------------------------------------------------------|
A|--------------------------------------------------------------------------|
E|--------------------------------------------------------------------------|

e|---------------------------------------14-14-14-12-11----11--------------|
B|-----7---7---7--7--9b^-7-----------------------------------12------------|
G|--/9---8---9---8---------\8-----4-4/--------------------------11--13-----|
D|----------------------------4h6------------------------------------------|
A|-------------------------------------------------------------------------|
E|-------------------------------------------------------------------------|

e|---11-11-11----11-11-11---11/19\14-14/16-16\11--11/14--14\7--7/11\4---|
B|-14----------14-------------------------------------------------------|
G|----------------------------------------------------------------------|
D|----------------------------------------------------------------------|
A|----------------------------------------------------------------------|
E|----------------------------------------------------------------------|

e|----4/7--7\2--2-0-0---------------------------------------------------|
B|------------------------4-4--2-2-0-0------------------------------------|
G|--------------------------------------1-1-------------------------------|
D|------------------------------------------4-4-2-2-1-1-------------------|
A|------------------------------------------------------2-2---------------|
E|----------------------------------------------------------4-0-----------|

e|------------------------------------------|
B|-------------------5-4--------------------|
G|---------------4h6-------6-4--6--4--------|
D|----------4h6--------------------4--------|
A|--2h4-4h6------------------------2--------|
E|------------------------------------------|

OUTRO:

e|------------0--------------0---------------0--------0------|
B|----------0---0----------0---0-----------0--0------0--0----|
G|--------8--------------8---------------6---------6---------|  3x
D|-----9---------------9---------------7----------7----------|
A|-----------------------------------------------------------|
E|-7----------------6---------------5-----------4------------|

e|-----------0----------------0------------0-----------0---------------|
B|---------0---0------------0---0--------0---0-------0-------------7---|
G|-------3----------------3-------------8----------8-------------------|
D|-----4----------------4-------------9----------9--------------9------|
A|--------------------------------------------------------9---9--------|
E|---2---------------0-------------11-----------9-------------7--------|
comments
print report bad tab
4 comments total. Showing first comments.
-1 reply
Angela21216 wrote on July 17 2014, 03:57 am

Lack of accuracy.

-1 reply
Angela21216 wrote on July 17 2014, 04:06 am

Lack of accuracy.

-1 reply
The Fourth wrote on July 20 2014, 06:29 pm

Lack of accuracy.

I want to post or [tab]
guest
You may want to rate the tab now too:
select rating
Please do not post tabs as comments. Select "correction" instead!