Oops, an error
Loading. Please wait.

Kasalanan Ba Tab

version 1
version 1

Whole song

25,394 views 60 this week
no commentswrite comment
1 2 3 4 5
please rate
add to favorites
launch autoscroll
font size
0
reset
how to read this tab
guitar tuner
Autoscroll
slow
fast
+/-
esc
set tempo
stop
Help us to improve Ultimate-Guitar.com Take our survey!
×
Author
Intro:G- Em- C- D-


optional if you like to play the organ parts in guitar do it in this way
    G                   Em                 C                    D

e|--3-------------------7--12-10-8-7-------8--8-10-10s12-10-8---10--10-12-12s14-12-10----|
B|--3-8-10-10S12-10-8---8------------10----8--------------------10-----------------------|
G|--4-------------------9------------------9--------------------11-----------------------|
D|--5-------------------9------------------10-------------------12-----------------------|
A|--5-------------------7------------------10-------------------12-----------------------|
E|--3--------------------------------------8--------------------10-----------------------|

JUST PLAY G-Em-C-D

e|-----------------------------------------------------------|
B|---10b-8h10-8--8h10-8--8h10-8---8--------------------------|
G|-------------9----------------9------7s9-9-----------------|
D|-------------------------------------------9h10-9-7--------|
A|----------------------------------------------------10-----|
E|-----------------------------------------------------------|

G                    Em
 Tulala sa isang tabi at di mapakali
C              D
 Ating nakaraan minumuni-muni
 Di lubos maiisip bakit nagkalayo
 Kaya ngayon ako’y isang bigo
 Nagkulang ba ako sa iyo
 Kaya tayo ngayo’y nagkalayo
 Walang nagawang kasalanan
 Kundi ang magmahal sa iyo ng lubusan

Refrain:

Em                    Bm
 Ako’y may natutunan sa aking karanasan
C                   D
 Mali ang magmahal agad ng lubusan
 Pigilan ang damdamin kung kailangan
 Upang ‘di masaktan kung ika’y iiwanan

Chorus:

G                  C
 Kasalanan bang mahalin ka nang lubusan
G             C
 Upang ako’y iyong iwanan
G                 C
 Bakit kung sino pa ang totohanan
Am                 D
 Ay siya pan’g nililisan

Repeat chorus

adlib: G- C- (3X) Am- D

e|-----777------------------------------|
B|---8-----1010-88---8--8-8s10----------|
G|------------------9--9----------------|  2X
D|--------------------------------------|
A|--------------------------------------|
E|--------------------------------------|

e|-------------------10-10h12-----------------12-10------------------10---------------------------------------|
B|----------8-8s10s12----------10h12p10---10-------12-10-8-10-10s12-10b--10b----------------15----15----15----|
G|-----7-7h9----------------------------12-----------------------------------9h12-12s14--14b---14b---14b--14b-|
D|--7h9-------------------------------------------------------------------------------------------------------|
A|------------------------------------------------------------------------------------------------------------|
E|------------------------------------------------------------------------------------------------------------|

Repeat Refrain
Repeat Chorus until fade


just pm trasher_jp15@yahoo.com  friendster account
and ym seatwork_guitarist
Suggest correction
Give kudos to tab author, rate the tab!
1 2 3 4 5
comments
print report bad tab
guest
You may want to rate the tab now too:
select rating
Wanna post a correction for this tab? Suggest correction