Oops, an error
Loading. Please wait.

Pop Goes The World Tab

version 1
version 1

Whole song

Interactive

6,043 views 1 this week
4 commentsread comments
1 2 3 4 5
2 more votes to show rating
add to favorites
launch autoscroll
font size
0
reset
how to read this tab
guitar tuner
Autoscroll
slow
fast
+/-
esc
set tempo
stop
All I have figured out so far is the chords but if someone already knows the picking could they e-mail it 
me.  bayckon@hotmail.com

Play around with this till it sounds right, the number of times you play the cords may not be exactly right.

      A little distortion (helps to have a peddle for this)
|----------------------------------------------------------------|
|----------------------------------------------------------------|
|--5-------------------------------------------------------------|
|--5-x14--5------------------------------------------------------|
|---------5-x14--8-----3-----------------------------------------|
|----------------8-x8--3-x8--------------------------------------|

      A lot of distortion for this part
|----------------------------------------------------------------|
|----------------------------------------------------------------|
|--5-x-x-x-x-x-x-x-x-x-x-5---------------------------------------|
|--5-x-x-x-x-x-x-x-x-x-x---5---5-x-x-x-x-x-x-x-x-x-x-5-----------|
|--3-x-x-x-x-x-x-x-x-x-x-------5-x-x-x-x-x-x-x-x-x-x---5---------|
|------------------------------3-x-x-x-x-x-x-x-x-x-x-------------|

|----------------------------------------------------------------|
|----------------------------------------------------------------|
|-----------------------------5-x-x-x-x-x-x-x-x-x-5--------------|
|--8-x-x-x-8----3-x-x-x-3-----5-x-x-x-x-x-x-x-x-x----------------|
|--8-x-x-x---8--3-x-x-x---3---3-x-x-x-x-x-x-x-x-x----------------|
|--6-x-x-x------1-x-x-x------------------------------------------|


-Ike
Suggest correction
Give kudos to tab author, rate the tab!
1 2 3 4 5
comments
print report bad tab
4 comments total. Showing first comments.
0 reply
ruso45 10 Aug 06, 2007 09:48 AM

i think it is :

e-9---9-11-12---12-11-9---9-9-11
B-------------------------------12-12

0 reply
ruso45 10 Aug 06, 2007 09:51 AM

would be great if you tab the whole song

0 reply
frenchabortion 16,646 Jul 18, 2008 12:29 PM

G-9------9-9-9-10-9-7------7-9-10--10-9-7--7-7-7-9-3-3--5-

This is the main riff.. all the notes are right, just format it better

guest
You may want to rate the tab now too:
select rating
Wanna post a correction for this tab? Suggest correction