Oops, an error
Loading. Please wait.

Infinity Tab

22 views 1 this week
no commentswrite comment
1 2 3 4 5
3 more votes to show rating
add to favorites
launch autoscroll
font size
0
reset
how to read this tab
guitar tuner
Autoscroll
slow
fast
+/-
esc
set tempo
stop
Help us to improve Ultimate-Guitar.com Take our survey!
×
Author
Difficulty
intermediate
Tuning: 4 steps down


[Intro]

A|-20-20-19-17-15------------------------------------------------------------| 
E|----------------15/17------------------------------------------------------|
C|---------------------------------------------------------------------------|
G|---------------------------------------------------------------------------|
D|---------------------------------------------------------------------------|
A|---------------------------------------------------------------------------|(x4)


[Verse]

A|---------------------------------------------------------------------------| 
E|---------------------------------------------------------------------------|
C|---------------------------------------------------------------------------|
G|-9-9-9-9-9-9-9-9-9-9-9-17-17-17-17-17-17-17-17-17--------------------------|
D|-9-9-9-9-9-9-9-9-9-9-9-17-17-17-17-17-17-17-17-17--------------------------|
A|-8-8-8-8-8-7-7-7-7-7-7-15-15-15-15-15-15-15-15-15--------------------------|(x4)


[Chorus] 
(Play the F 8 times not 4)
   * * * *
A|---------------------------------------------------------------------------|
E|---------------------------------------------------------------------------|
C|---------------------------------------------------------------------------|
G|-9-9-9-9-17-17-17-17-17-17-17-17-17-17-17-17-17-17-17----------------------|
D|-9-9-9-9-17-17-17-17-17-17-17-17-17-17-17-17-17-17-17----------------------|
A|-8-8-8-8-15-15-15-15-15-15-15-15-15-15-15-15-15-15-15----------------------|(x4)


[Outro]

A|---------------------------------------------------------------------------------------------|
E|---------------------------------------------------------------------------------------------|
C|---------------------------------------------------------------------------------------------|
G|-12-12-12-12-12-12-12-12-14-14-14-14-14-14-14-14-17-17-17-17-17-17-17-17-17-17-17-17-17-17-17|
D|-12-12-12-12-12-12-12-12-14-14-14-14-14-14-14-14-17-17-17-17-17-17-17-17-17-17-17-17-17-17-17|
A|-10-10-10-10-10-10-10-10-12-12-12-12-12-12-12-12-15-15-15-15-15-15-15-15-15-15-15-15-15-15-15|(x4)



************************************

| /  Slide up

************************************
Suggest correction
Give kudos to tab author, rate the tab!
1 2 3 4 5
comments
print report bad tab
guest
You may want to rate the tab now too:
select rating
Wanna post a correction for this tab? Suggest correction