Oops, an error
Loading. Please wait.

Reaper Waits tab

version 1
version 1

Whole song

Interactive

by Mendeed
1,393 views 1 this week
7 commentsread comments
1 2 3 4 5
x 8
add to favorites
×
Save as Personal and add changes to this tab that will be seen only by you. Learn more ›
×
You can save this tab as Personal to edit and correct it or add notes. All changes will be seen only by you. Learn more »
launch autoscroll
font size
0
reset
how to read this tab
guitar tuner
edit
Autoscroll
slow
fast
+/-
esc
set tempo
stop
song: the reaper waits
band: mendeed
album:this war will last forever

This song is absolutely amazing. mendeed are great live too. it was the first mendeed 
i heard and its really cool to play.
I have only been able to do one guitar, but if you could help me out, i would be very happy.
This took me absolutely hours to tab out because its really hard, and im only 14 and im 
to tabbing songs by aiden and stuff so please dont be too harsh!
I think its mostly perfect
Please rate and comment

drop d tuning

INTRO
|------------------------------------------|
|------------------------------------------|
|------------------------------------------| X4
|-000-8-6-8-000-6-4-6-000-9-8-9-000-6-8-6--|
|-000-------000-------000-------000--------|
|-000-------000-------000-------000--------|


PRE-VERSE
|-----------------------------------------------------------|
|-----------------------------------------------------------|
|------------15---------15-16-15~--15-16-18-16~--15----15~--|
|-16~--16-18----18~--18----------------------------18-------|
|-----------------------------------------------------------|
|-----------------------------------------------------------|

|-----------------------------------------------------|
|-15-16-18-16~--16-18-20-18~--20-18-16-----16---------|
|--------------------------------------20-----20-18~--|
|-----------------------------------------------------|
|-----------------------------------------------------|
|-----------------------------------------------------|


VERSE
|--------------------------------------------------------------|
|--------------------------------------------------------------|
|--------------------------------------------------------------| X4
|-8---8-9-11-9-8-----11-9-8-----------------9------------------|
|----------------11---------11~----11-11-11-----8h9h11-9h9h11--|
|--------------------------------------------------------------|


POST-VERSE
|------------------------------------|
|------------------------------------|
|------------------------------------|
|-8~--6~--4~--3-6-8~--6~--4~--3-6-8--|
|-8~--6~--4~--3-6-8~--6~--4~--3-6-8--|
|-8~--6~--4~--3-6-8~--6~--4~--3-6-8--|


PRE-CHORUS                                           \
|--------------------------------------------------| ------- \
|--------------------------------------------------|  ------ \
|--------------------------------------------------|   ----- \
|-666-888-666-888-66-66--666-888-666-888-6h8h6-----|    ---- \
|-666-888-666-888-66-66--666-888-666-888-------9-8-|     --- \
|-666-888-666-888-66-66--666-888-666-888-----------|      -- \
                                                           / x2
|----------------------------------------20~-------------- \           /
|--------------------------------------------------------- \          /
|--------------------------------------------------------- \         /
|-666-888-666-888-66-66--666-888-666-888------------------ \        /
|-666-888-666-888-66-66--666-888-666-888------------------ \       /
|-666-888-666-888-66-66--666-888-666-888------------------ \      /


CHORUS                                      \
|--------------------------------------|    ------- \
|--------------------------------------|     ------ \
|--------------------------------------| x2   ----- \
|--------------------------------------|       ---- \
|-9p8p6-11p9p8-13p11p9-11p9p8-9p8p6p4--|        --- \
|--------------------------------------|         -- \
                                                  / x2
|------------------------------------------------ \              /
|------------------------------------------------ \             /
|---------------------------------| x2----------- \         /
|------------------------------------------------ \           /
|-7p6p4-9p8p6-11p9p7-9p8p6-7p6p4----------------- \          /
|------------------------------------------------ \         /


POST-CHORUS
|---------------------------------------------------------|
|---------------------------------------------------------|
|---------------------------------------------------------| x2
|----------------999------------------------------999-88--|
|-999111111131313---13131111------1313131111--------------|
|---------------------------131313----------111111--------|


VERSE
|-----------------------------------------------------------------|
|-----------------------------------------------------------------|
|-----------------------------------------------------------------| x4
|-8---8-9-11-9-8-----11-9-8-----------------9-8--------------8----|
|----------------11---------11~----11-11-11-----8h9h11-9-9h11-11--|
|-----------------------------------------------------------------|


PRE-CHORUS
|--------------------------------------------------|
|--------------------------------------------------|
|----------------------------------------6h8h6-----|
|-666-888-666-888-66-66--666-888-666-888-------9-8-|
|-666-888-666-888-66-66--666-888-666-888-----------|
|-666-888-666-888-66-66--666-888-666-888-----------|

|----------------------------------------20~--|
|---------------------------------------------|
|---------------------------------------------|
|-666-888-666-888-66-66--666-888-666-888------|
|-666-888-666-888-66-66--666-888-666-888------|
|-666-888-666-888-66-66--666-888-666-888------|


CHORUS                                      \
|--------------------------------------|    ------- \
|--------------------------------------|     ------ \
|--------------------------------------| x2   ----- \
|--------------------------------------|       ---- \
|-9p8p6-11p9p8-13p11p9-11p9p8-9p8p6p4--|        --- \
|--------------------------------------|         -- \
                                                  / x2
|------------------------------------------------ \              /
|------------------------------------------------ \             /
|---------------------------------| x2----------- \         /
|------------------------------------------------ \           /
|-7p6p4-9p8p6-11p9p7-9p8p6-7p6p4----------------- \          /
|------------------------------------------------ \         /


POST-CHORUS
|--------------------------------------------------------|
|--------------------------------------------------------|
|--------------------------------------------------------| x4
|----------------999------------------------------99988--|
|-999111111131313---13131111------1313131111-------------|
|---------------------------131313----------111111-------|


PRE-END
|--------------------------------------------|
|--------------------------------------------|
|-------------------------------------8-6-8--| X6
|-000-8-6-8-000-6-4-6-000-8-6-8-9-8-9--------|
|-000-------000-------000--------------------|
|-000-------000-------000--------------------|


END
|-------------------------------------------|
|-------------------------------------------|
|-------------------------8-6-8-------------|
|-000-000-000-8-6-8-9-8-9-------000-000-00--|
|-000-000-000-------------------000-000-00--|
|-000-000-000-------------------000-000-00--|


enjoy...

            
            
Suggest correction
Creating personal tab
Creating personal tab
You can edit any tab online and save it as your Personal.

You can edit, replace or remove any tab part or add personal notes – all changes will be seen only by you.

Personal tabs can be accessed anytime from any device, even offline.
Learn more »
comments
print report bad tab
7 comments total. Showing first comments.
0 reply
guitarist_2006 394 Jul 16, 2006 12:34 AM

dis song is fukin good but dis tab is lil messed up

well dis is probly the fisrt tab i've seen by mendeed

0 reply
guitarist_2006 394 Jul 24, 2006 09:34 PM

it should be like dis

|--------------------------------------|
|--------------------------------------|
|--------------------------------------|
|-00-8-7-8-00-6-4-6-00-9-8-9-00-6-8-6--|
|-00-------00-------00-------00--------|
|--------------------------------------|

0 reply
mullenmetal 50 Aug 06, 2006 07:13 AM

good song :) i dont care if the tabs 100% correct man as long as it sounds like it lol

guest
You may want to rate the tab now too:
select rating
Wanna post a correction for this tab? Suggest correction