Oops, an error
Loading. Please wait.

Remains Of The Day intro tab

version 1
version 1

Intro

Interactive

by Mendeed
2,118 views 9 this week
1 commentread comment
1 2 3 4 5
1 last vote to show rating
add to favorites
×
Save as Personal and add changes to this tab that will be seen only by you. Learn more ›
×
You can save this tab as Personal to edit and correct it or add notes. All changes will be seen only by you. Learn more »
launch autoscroll
font size
0
reset
how to read this tab
guitar tuner
edit
Autoscroll
slow
fast
+/-
esc
set tempo
stop
Author
remains of the day intro
mendeed
this war will last forever

i hope this is helpful if anyone can finish it off. this is all i got...

drop d
|
|--------------|
|--------------|
|-13-----------| x4
|----13-11-13--|
|--------------|
|--------------|
|
|
|----------|
|----------|
|-9-8-6-8--| x4
|----------|
|----------|
|----------|
|
|
|----------|
|----------|
|-6-8-6-4--| x4
|----------|
|----------|
|----------|
|
|
|--------------------------------|
|--------------------------------|
|--------------------------------|
|-11-9-8-9--8-9-8-6--8-6-4-6-2~--|
|--------------------------------|
|--------------------------------|

^ ^ ^ repeat everything above ONCE ^ ^ ^

|--------------------------------------|
|--------------------------------------|
|--------------------------------------|
|-4-6-6-4--4-6--9-6--4-6-6-6--2-9-8-6--|
|-4-6-6-4--4-6--9-6--4-6-6-6--2-9-8-6--|
|-4-6-6-4--4-6--9-6--4-6-6-6--2-9-8-6--|


please use this to help tab the rest... 

            
            
Suggest correction
Creating personal tab
Creating personal tab
You can edit any tab online and save it as your Personal.

You can edit, replace or remove any tab part or add personal notes – all changes will be seen only by you.

Personal tabs can be accessed anytime from any device, even offline.
Learn more »
Give kudos to tab author, rate the tab!
1 2 3 4 5
comments
print report bad tab
1 comment total.
0 reply
guitarguy131 10 Sep 02, 2006 06:49 AM

Mendeed play in Standard tuning down a semitone.

guest
You may want to rate the tab now too:
select rating
Wanna post a correction for this tab? Suggest correction