Oops, an error
Loading. Please wait.

Claridad Bass Tab

74 views 1 this week
no commentswrite comment
1 2 3 4 5
3 more votes to show rating
add to favorites
launch autoscroll
font size
0
reset
guitar tuner
Autoscroll
slow
fast
+/-
esc
set tempo
stop
Help us to improve Ultimate-Guitar.com Take our survey!
×
Ven claridad.............
E|--------------------------3(8)------------|
A|--5(16)-0(16)-5(16)-0(16)------0(8)-5(16)-| x3
D|------------------------------------------|
G|------------------------------------------|

Removiendo el cielo de azul.....
E|-------------------------3(8)----------------------------|
A|--5(16)-0(16)-5(16)-0(8)------5(8)-0(8)-5(8)-0(44)-5(16)-|
D|---------------------------------------------------------|
G|---------------------------------------------------------|

Sol claridad cada luz.........
E|--------------------------3(8)------------|
A|--5(16)-0(16)-5(16)-0(16)------0(8)-5(16)-| x2
D|------------------------------------------|
G|------------------------------------------|

Removiendo el cielo de azul.....
E|-------------------------3(8)----------------------------|
A|--5(16)-0(16)-5(16)-0(8)------5(8)-0(8)-5(8)-0(44)-5(16)-|
D|---------------------------------------------------------|
G|---------------------------------------------------------|
Suggest correction
Give kudos to tab author, rate the tab!
1 2 3 4 5
comments
print report bad tab
guest
You may want to rate the tab now too:
select rating
Wanna post a correction for this tab? Suggest correction