Oops, an error
Loading. Please wait.

Lo Que Juramos Tab

20 views 1 this week
no commentswrite comment
1 2 3 4 5
3 more votes to show rating
add to favorites
launch autoscroll
font size
0
reset
how to read this tab
guitar tuner
Autoscroll
slow
fast
+/-
esc
set tempo
stop
Help us to improve Ultimate-Guitar.com Take our survey!
×
Intro (FA DO REm LA A# DO FA)

e|-----1-1/0----------0-1-----0-9/10-8-6-5-3-0-1..---------0/1---------|  
B|----1------2------3-----2-3---------------------------1-3-----3-1-3..-|
G|---2---------0.-------------------------------------2-----------------|  
D|-----------------0----------------------------------------------------|
A|----------------------------------------------------------------------|
E|-1--------------------------------------------------------------------|

REm               LA          REm            (Riff 1)    FA             DO    FA      (Riff 2)
  Cuánto tiempo ya ha pasado,          cuántos sueños olvidados
SIb               FA          SOLm      DO
   ya no quieres recordar lo que juramos.
FA               DO    FA       SIb           FA      SOLm
   Cuántos besos se quedaron, para mí en tus bellos labios
FA      DO
no me los has dado.

Coro
      FA            DO      REm
Vivo soñando contigo, mi amor
DO      FA      DO      REm
Sigo llorando si escucho tu nombre
DO      FA      DO      REm
Vivo esperando que vuelvas conmigo
LA       SIb   DO            FA
Y que recuerdes: era para siempre.

Solo 1      (FA  DO  REm  LA  SIb  DO  FA)
e|-8-6-5-6.-6-5-3-5.-5-3-------5-3--------------------------|  
B|-----------------------6-5-------6-5-6.--3-5-6-5-6-5-6..--|
G|---------------------------5------------------------------|  
D|----------------------------------------------------------|
A|----------------------------------------------------------|
E|----------------------------------------------------------|

FA      DO      FA         (Riff 3)
Ahora nada es como antes
SIb      FA      SOLm
aunque digan que me va a pasar
FA      DO      (Riff 4)
que me levante.
FA      DO      FA
Y que siga mi camino solo
SIb      FA      SOLm      FA      DO
pero luego miro tu rostro y olvido todo.

Vivo soñando contigo, mi amor
sigo llorando si escucho tu nombre
vivo esperando que vuelvas conmigo
y que recuerdes...

Vivo soñando contigo, mi amor
sigo llorando si escucho tu nombre
vivo esperando que vuelvas conmigo
LA         SIb     DO        FA    LA  SIb DO  (Riff 5)
y que recuerdes: era para siempre
           FA  DO  REm  LA  SIb  DO  FA
Era para siempre.

Solo2:
e|-8-6-5-6.-6-5-3-5.-5-3--------------------------|  
B|-----------------------6-5-6/8-6.-6-5.-5/6-6..--|
G|------------------------------------------------|  
D|------------------------------------------------|
A|------------------------------------------------|
E|------------------------------------------------|

Riffs:
 
RIFF 1
e|---1-3-6-5-3-1-5..--|  
B|-1------------------|
G|--------------------|  
D|--------------------|  
A|--------------------|
E|--------------------|

RIFF 2
e|-----------8..--|  
B|-5-6-8-5-6------|
G|----------------|  
D|----------------|  
A|----------------|
E|----------------|
 
RIFF 3
e|--------------|  
B|-3-5-6/8-6..--|
G|--------------|  
D|--------------|  
A|--------------|
E|--------------|

RIFF 4
e|----------|  
B|----------|
G|-7/5-4-5--|  
D|-8/7-5-7--|  
A|----------|
E|----------|

RIFF 5
e|--------------------|  
B|-3-5-6/8-6/5-6/8..--|
G|--------------------|  
D|--------------------|  
A|--------------------|
E|--------------------|
Suggest correction
Give kudos to tab author, rate the tab!
1 2 3 4 5
comments
print report bad tab
guest
You may want to rate the tab now too:
select rating
Wanna post a correction for this tab? Suggest correction