Oops, an error
Loading. Please wait.

Mil Angeles Tab

26 views 1 this week
no commentswrite comment
1 2 3 4 5
3 more votes to show rating
add to favorites
launch autoscroll
font size
0
reset
how to read this tab
guitar tuner
Autoscroll
slow
fast
+/-
esc
set tempo
stop
Help us to improve Ultimate-Guitar.com Take our survey!
×
Una buena canción de este grupo, toquenlo junto con la canción, escuchando
bien la música y todo eso... ;) Cuidense mucho!

Intro: C G Am Em F C Dm G
e|-------------------5.--------------------------------|
B|--------5/6-8.-5/8----8.-6.-8..--8.-8/6-6-5.-5/6-----|
G|-----5.------------------------------------------7.--|
D|-5/7-------------------------------------------------|
A|-----------------------------------------------------|
E|-----------------------------------------------------|

 C                G
  Cuantas veces soñamos despiertos 
Am                    Em
  en un amor que termino en el silencio
 F                     C
  las flores de mi jardín en invierno 
Dm                       G
  florecerán porque tu amor fue sincero.

Pre-Coro
Am                        G          D
  Te conformabas con tan solo una mirada
Am                G           F   G
  una sonrisa un gesto sin palabras.

Riff 1
e|---------------------------|
B|--------5/6-6/8-6-5-6/5----|
G|-----5.-----------------5.-|
D|-5/7-----------------------|
A|---------------------------|
E|---------------------------|

Coro
 C                  G
  Vi mil ángeles contigo en el cielo
Am               Em
  y mi voz que susurra en tus sueños
 F                   C
  tus caminos se unirán en el tiempo 
Dm                      G
  es un amor que será siempre eterno.
 C                  G
  Vi mil ángeles contigo en el cielo
Am               Em
  y mi voz que susurra en tus sueños 
 F                     C
  juventud que se nos va en el silencio
Dm                      G
  es un amor que será siempre eterno.

Solo 1
e|------------------------5----------------------------------
B|------------5/6-8.--5/8---8-6-6/5-5.--8-6-8-6-5.-6-5-------
G|-----5/7-5.------------------------------------------7-5.--
D|-5/7-------------------------------------------------------
A|-----------------------------------------------------------
E|-----------------------------------------------------------

e|-----------5-7/8-8/10.-10/8-7.-8.-|
B|-----5/6-8------------------------|
G|-5/7------------------------------|
D|----------------------------------|
A|----------------------------------|
E|----------------------------------|

 C                    G
  Hoy el destino que nos separa
Am                    Em
  es el mismo que nos une en el alma
 F                     C
  que pena nunca pude ver tu mirada 
Dm                      G
  tus sueños se fueron con el alba.

Pre-Coro
Am                        G          D
  Te conformabas con tan solo una mirada (Riff 2)
Am                G           F   G
  una sonrisa un gesto sin palabras. (Riff 3)

Riff 2
e|----------------|
B|---------5/6-5.-|
G|-----5/7--------|
D|-5/7------------|
A|----------------|
E|----------------|

Riff 3
e|---------------------------5-7/8-8/10-8.-|
B|-----5.-----5.-6-8.-5-6-8----------------|
G|-5/7----5/7------------------------------|
D|-----------------------------------------|
A|-----------------------------------------|
E|-----------------------------------------|

Coro
 C                  G
  Vi mil ángeles contigo en el cielo
Am               Em
  y mi voz que susurra en tus sueños
 F                   C
  tus caminos se unirán en el tiempo 
Dm                      G
  es un amor que será siempre eterno.
 C                  G
  Vi mil ángeles contigo en el cielo
Am               Em
  y mi voz que susurra en tus sueños 
 F                     C
  juventud que se nos va en el silencio
Dm                      G
  es un amor que será siempre eterno.

C G Am Em F C Dm G?
Na, na, na, na...

Este ?Solo? se hace al mismo tiempo del ?Na, na, na..?

Solo 2
e|-------5-7-8-8/10.-10/8-7-8.--7/8-10-8-7-8-7-8-----8.-8/10-10.--
B|-5/6-8-----------------------------------------10.--------------
G|----------------------------------------------------------------
D|----------------------------------------------------------------
A|----------------------------------------------------------------
E|----------------------------------------------------------------

e|-10-10-10-8-7-8-7-8-8..-|
B|------------------------|
G|------------------------|
D|------------------------|
A|------------------------|
E|------------------------|

Coro

Este Solo se hace junto con el Coro

Solo 3
e|---------------------------------8-8/10-10.--10.-10-8-8-8-7-8-8.--
B|-6/8-6-5------6/8-6-5-6-6.--8-10----------------------------------
G|---------7-5.-----------------------------------------------------
D|------------------------------------------------------------------
A|------------------------------------------------------------------
E|------------------------------------------------------------------

e|-10-7.-7-7/8-----------8/10-10-10-7-8-----12-10----10----------12.--
B|-------------10.-10/12----------------10.-------13----13-13-13------
G|--------------------------------------------------------------------
D|--------------------------------------------------------------------
A|--------------------------------------------------------------------
E|--------------------------------------------------------------------

e|-12-12-10-10---------------------|
B|-------------13-13-12-12/13-13.--|
G|---------------------------------|
D|---------------------------------|
A|---------------------------------|
E|---------------------------------|


 ·=========================·
 |   ;)  ¤«L·u·K·?  :)   |
 | luis_reque@  |
 ·=========================·
Suggest correction
Give kudos to tab author, rate the tab!
1 2 3 4 5
comments
print report bad tab
guest
You may want to rate the tab now too:
select rating
Wanna post a correction for this tab? Suggest correction