Oops, an error
Loading. Please wait.

Solo Le Pido A Dios Tab

289 views 3 this week
no commentswrite comment
1 2 3 4 5
3 more votes to show rating
add to favorites
launch autoscroll
font size
0
reset
how to read this tab
guitar tuner
Autoscroll
slow
fast
+/-
esc
set tempo
stop
Help us to improve Ultimate-Guitar.com Take our survey!
×
PARA ROXANA (GORDANIA) CON CARIÑO

solo le pido a dios    q el dolor no me sea indiferente

e|--------------------------2-2-2-0-0-0-0--------
B|-2----2-0-2-0---------------------------3------
G|-2----2-1-2-1--2-------------------------------
D|-----------------------------------------------
A|-----------------------------------------------
E|-----------------------------------------------
que la reseca      muerta no me encuentre

e|--0----0-0-0----------------------------------
B|-2----2-2-2-0-----0-2-3---3-2-2-2-2------------
G|-----------------------------------------------
D|------------------------------------4-----------
A|-----------------------------------------------
E|-----------------------------------------------

solo le pido a dios    que lo injusto no me sea indiferente,
 e|--------------------------2-2-2-0-0-0-0--------
 B|-2----2-0-2-0---------------------------3------
 G|-2----2-1-2-1--2-------------------------------
 D|-----------------------------------------------
 A|-----------------------------------------------
 E|-----------------------------------------------
q no m abofeten la otra mejilla despues que una garra me araño esta suerte

 e|--0----0-0-0--------------------------------------------------
 B|-2----2-2-2-0--------------------------0-2-3---3-2-2-2-2------
 G|--------------------------------------------------------------
 D|------------------------------------------------------------4-
 A|--------------------------------------------------------------
 E|--------------------------------------------------------------

 solo le pido a dios  que la guerra no me sea indiferente
 e|--------------------------2-2-2-0-0-0-0--------
 B|-2----2-0-2-0---------------------------3------
 G|-2----2-1-2-1--2-------------------------------
 D|-----------------------------------------------
 A|-----------------------------------------------
 E|-----------------------------------------------

es un monstruo grande y pisa fuerte toda la pobre inocencia de la gente
e|--0----0-0-0--------------------------------------
B|-2----2-2-2-0----------------------0-2-3---3-2-2-2-2-
G|----------------------------------------------------
D|------------------------------------------------------4--
A|---------------------------------------------------
E|---------------------------------------------------
AKI VIEN LA PARTE LE LA ARMONICA 2:03

solo le pido a dios que el engaño no me sea indiferente
e|--------------------------2-2-2-0-0-0-0--------
B|-2----2-0-2-0---------------------------3------
G|-2----2-1-2-1--2-------------------------------
D|-----------------------------------------------
A|-----------------------------------------------
E|-----------------------------------------------
si un traidor puede mas q unoscuantos,q esos cuantos nolo olviden facilmente
e|--0----0-0-0------------------------------------------------
B|-2----2-2-2-0----------------------------0-2-3---3-2-2-2-2--
G|------------------------------------------------------------
D|-----------------------------------------------------------4-
A|------------------------------------------------------------
E|------------------------------------------------------------
solo le pido a dios        que el futuro no me sea indiferente
e|--------------------------2-2-2-0-0-0-0--------
B|-2----2-0-2-0---------------------------3------
G|-2----2-1-2-1--2-------------------------------
D|-----------------------------------------------
A|-----------------------------------------------
E|-----------------------------------------------
desahuciado esta el que tiene que marchar  a vivir una cultura diferente.

e|--0----0-0-0------------------------------------------------
B|-2----2-2-2-0--------------------------0-2-3---3-2-2-2-2----
G|------------------------------------------------------------
D|---------------------------------------------------------4--
A|------------------------------------------------------------
E|------------------------------------------------------------
Solo le pido a dios        que la guerra no me sea indiferente
e|--------------------------2-2-2-0-0-0-0--------
B|-2----2-0-2-0---------------------------3------
G|-2----2-1-2-1--2-------------------------------
D|-----------------------------------------------
A|-----------------------------------------------
E|-----------------------------------------------
es un monstruo grande y pisa fuerte toda la pobre inocencia de la gente
e|--0----0-0-0--------------------------------------------
B|-2----2-2-2-0-----------------------0-2-3---3-2-2-2-2---
G|--------------------------------------------------------
D|------------------------------------------------------4-
A|--------------------------------------------------------
E|----------------------------------------------------.---

es un monstruo grande y pisa fuerte toda la pobre inocencia de la gente
e|--0----0-0-0--------------------------------------------
B|-2----2-2-2-0-----------------------0-2-3---3-2-2-2-2---
G|--------------------------------------------------------
D|------------------------------------------------------4-
A|--------------------------------------------------------
E|----------------------------------------------------.---
parte de la armonica
4:04
Suggest correction
Give kudos to tab author, rate the tab!
1 2 3 4 5
comments
print report bad tab
guest
You may want to rate the tab now too:
select rating
Wanna post a correction for this tab? Suggest correction