Oops, an error
Loading. Please wait.

Zona De Promesas Tab

103 views 15 this week
no commentswrite comment
1 2 3 4 5
3 more votes to show rating
add to favorites
launch autoscroll
font size
0
reset
how to read this tab
guitar tuner
Autoscroll
slow
fast
+/-
esc
set tempo
stop
Help us to improve Ultimate-Guitar.com Take our survey!
×
Author
Difficulty
intermediate
Mercedes Sosa y Gustavo Cerati
Zona de Promesas
Álbum: Cantora (2009)


[Intro]

   G      D/F#   G       D/F#       C     D     C    D/F#    
          
e|-7---7\5-5---|-7---7\5--5---5\3-|-3---3-2---|-0----------|
B|-----------3-|---0--------3-----|---1-------|-1----3-----|
G|---7---------|------------------|---------2-|-0-0--2---2-|
D|-5-------4---|-5--------4-------|-2-----0---|------0-0---|
A|-------------|------------------|-----------|-3----------|
E|-------------|------------------|-----------|------2-----|

   G      D/F#   G       D/F#   C     D     C

e|-7---7\5-5---|-7---7\5--5---|-3---3-2---|-0-|
B|-----------3-|---0--------3-|---1-------|-1-|
G|---7---------|--------------|---------2-|-0-|
D|-5-------4---|-5--------4---|-2-----0---|-2-|
A|-------------|--------------|-----------|-3-|
E|-------------|--------------|-----------|---|


************************************

| \   Slide down

************************************
Suggest correction
Give kudos to tab author, rate the tab!
1 2 3 4 5
comments
print report bad tab
guest
You may want to rate the tab now too:
select rating
Wanna post a correction for this tab? Suggest correction