Oops, an error
Loading. Please wait.

Flawless chords

version 2
version 2

Whole song

  • This version is different because it includes all ... Show more
by MercyMe
3,095 views 36 this week
no commentswrite comment
1 2 3 4 5
x 12
add to favorites
×
Save as Personal and add changes to this tab that will be seen only by you. Learn more ›
×
You can save this tab as Personal to edit and correct it or add notes. All changes will be seen only by you. Learn more »
launch autoscroll
font size
0
reset
transpose
0
reset
display chords
guitar tuner
edit
Autoscroll
slow
fast
+/-
esc
set tempo
stop
Author
Difficulty
Unregistered
Strumming
There is no strumming pattern for this song yet. and get +5 IQ
Tuning: Standard E,A,D,G,B,e

[Intro] 
(A, A riff for lead guitar)

(For lead guitar)
(Only on verses)   
(On A chords)
e|---------------------------------------------------------------------------|
B|----2-----2------2------2---------------------2-----2------2---------------|
G|-2----2-2----2-2---2-2--------------------2----2-2----2-2---2-2------------|
D|---------------------------------------------------------------------------|
A|---------------------------------------------------------------------------|
E|---------------------------------------------------------------------------|

(On E chords)
e|---------------------------------------------------------------------------|
B|----1-----1------1------1---------------------1-----1------1---------------|
G|-2----2-2----2-2---2-2--------------------2----2-2----2-2---2-2------------|
D|---------------------------------------------------------------------------|
A|---------------------------------------------------------------------------|
E|---------------------------------------------------------------------------|

(On D chords)
e|---------------------------------------------------------------------------|
B|----3-----3------3------3---------------------3-----3------3---------------|
G|-2----2-2----2-2---2-2--------------------2----2-2----2-2---2-2------------|
D|---------------------------------------------------------------------------|
A|---------------------------------------------------------------------------|
E|---------------------------------------------------------------------------|

[Verse 1]
                       A
There’s got to be more 
           A 
Than going back and forth 
           E
From doing right to doing wrong 
               E
‘Cause we were taught that’s who we are 
        D       
Come on get in line right behind me 
D                          A
You along with everybody 
                 A
Thinking there’s worth in what you do 

[Hook]
A
Then Like a hero who takes the stage when 
E                                              D 
We’re on the edge of our seats saying it’s too late 
                             A  
Well let me introduce you to amazing grace 

[Chorus]
   A
No matter the bumps 
   A 
No matter the bruises 
   E
No matter the scars 
Still the truth is 
    D
The cross has made 
        D                  A 
The cross has made you flawless 
   A 
No matter the hurt 
   A
Or how deep the wound is 
   E 
No matter the pain 
E
Still the truth is 
    D 
The cross has made 
        D                  A
The cross has made you flawless 

[Verse 2]
                     A
Could it possibly be 
               A
That we simply can’t believe 
          E
That this unconditional 
        E
Kind of love would be enough 
  D
To take a filthy wretch like this 
   D  
And wrap him up in righteousness 
   A      
But that’s exactly what He did 

[Chorus]
   A
No matter the bumps 
   A 
No matter the bruises 
   E
No matter the scars 
Still the truth is 
    D
The cross has made 
        D                  A 
The cross has made you flawless 
   A 
No matter the hurt 
   A
Or how deep the wound is 
   E 
No matter the pain 
E
Still the truth is 
    D 
The cross has made 
        D                  A
The cross has made you flawless 

[Bridge]
        G 
Oh yeah ooh oooh ooh
D
ooh oooh ooh
A
Take a breath smile and say 
      A 
Right here right now I’m ok 
  G         D          A
Because the cross was enough 

[Hook]
A
Then Like a hero who takes the stage when 
E                                              D 
We’re on the edge of our seats saying it’s too late 
                             A      A
Well let me introduce you to grace, grace
D
God's grace 

[Chorus]
   A
No matter the bumps 
   A 
No matter the bruises 
   E
No matter the scars 
Still the truth is 
    D
The cross has made 
        D                  A 
The cross has made you flawless 
   A 
No matter the hurt 
   A
Or how deep the wound is 
   E 
No matter the pain 
E
Still the truth is 
    D 
The cross has made 
        D                  A
The cross has made you flawless
A
No matter what they say 
                      E
Or what you think you are 
                       E
The day you called His name 
            D         D
He made you flawless
            A
He made you flawless

[Outro]
   A
No matter the bumps 
   A 
No matter the bruises 
   E
No matter the scars 
Still the truth is 
    D
The cross has made 
        D                  A 
The cross has made you flawless
Suggest correction
Creating personal tab
Creating personal tab
You can edit any tab online and save it as your Personal.

You can edit, replace or remove any tab part or add personal notes – all changes will be seen only by you.

Personal tabs can be accessed anytime from any device, even offline.
Learn more »
comments
print report bad tab
guest
Wanna post a correction for this tab? Suggest correction