Oops, an error
Loading. Please wait.

I Can Only Imagine Tab

version 3
version 3

Whole song

Video

13,157 views 6 this week
no commentswrite comment
1 2 3 4 5
accurate
x 7
add to favorites
launch autoscroll
font size
0
reset
how to read this tab
guitar tuner
Tab Pro tools
  • play this tab
  • loop segment
  • change instrument
  • show fretboard
  • metronome
×
Best way to learn
"I Can Only Imagine"
Autoscroll
slow
fast
+/-
esc
set tempo
stop
Contributor
MercyMe- I Can Only Imagine


Intro
E|-------0-------|-------------|----------|-------------|---------------------|
B|---4--------0--|-----------0-|--------0-|-------------|---------------------|
G|---------------|-------------|----------|-------------|----------------2----|
D|---------------|---1---2-----|--1--2----|--1--2-------|---1-----2-----------|
A|---------------|-------------|----------|---------4---|---------------------|
E|---------------|-------------|----------|-------------|---------------------|

Verse 1 and 2 (Find additional lyrics for verse 2 at bottom of page):
E|---------------------------------------0----------------------------------0-|
B|---------------------------------------0----------------------------------0-|
G|-----------1---------------------------1----------1-----------------------1-|
D|-----------------4-----2----4-----2---------------------4-----4/2----1------|
A|---2--2-------------------------------------2-------------------------------|
E|----------------------------------------------------------------------------|
     I can   on  - ly    im – ag - ine       what   it   will   be___ like

E|-------------------0----------------------0-----------------------------------0--|
B|-------------------2----------------------0-----------------------------------0--|
G|---1---------------2----------------------2-----------1-----------------------1--|
D|--------4---4/2--------------2-----4-----------------------4---2----4-----2------|
A|-----------------------4----------------------2---2------------------------------|
E|---------------------------------------------------------------------------------|
    When  I  walk___     by   Your   side.      I  can  on - ly  im – ag - ine

E|--------------------------------0-----------------------0---------------------0-|
B|--------------------------------0-----------------------2---------------------0-|
G|---1------------------------1---1—--1-------------------2---------------------2-|
D|---------4-----4-----2--------------------4------4/2----------2-----4----2------|
A|----------------------------------------------------------4---------------------|
E|--------------------------------------------------------------------------------|
    What   my   eyes  would  see     when  Your   face___   is  be – fore  me

E|---------------------------------------0--0-------------------------------------|
B|---------------------------------------0--0----------0-------0------------------|
G|-----------1---------------------------1--1-----------------------------------2-|
D|-----------------4-----2----4-----2-----------1---2----1---2--—1--2----1---2----|
A|---2--2-------------------------------------------------------------4-----------|
E|--------------------------------------------------------------------------------|
     I can   on  - ly    im – ag – ine.     
 
Chorus 1:
E|----------------------------------------------------------------------------|
B|--------------0------0---0------0-----0-----2-----0----0---0----0----2/0----|
G|-(2)------------------------------------------------------------------------|
D|----------------------------------------------------------------------------|
A|-------2--------------------------------------------------------------------|
E|----------------------------------------------------------------------------|
         Sur – round – ed  by___  Your  glo – ry   what will my heart feel?___

E|----------------------------------------------------------------------------|
B|-------0----0-----0-----0-----0----0--------0----0-------0-------0-----2----|
G|--1-------------------------------------1------------1----------------------|
D|----------------------------------------------------------------------------|
A|----------------------------------------------------------------------------|
E|----------------------------------------------------------------------------|
    Will  I  dance  for  You,  Jes – us,  or  in  awe  of  You__   be  still?




E|---------------------------------------------------------------------------|
B|---------0--0----0---0---0----0-----------0---0-----0-----0—----2/0--------|
G|----1----------------------------------1-----------------------------------|
D|------------------------------------2--------------------------------------|
A|---------------------------------------------------------------------------|
E|---------------------------------------------------------------------------|
      Will I stand in Your pre-sence  or to my knees will   I     fall?____

E|----------------------------------------------------------------------------|
B|------0--0----0------0---0-----0-------------0—-0---0-------0--------2------|
G|--1---------------------------------------1-------------1--------1----------|
D|-------------------------------------2--------------------------------------|
A|----------------------------------------------------------------------------|
E|----------------------------------------------------------------------------|
   Will I sing  hal – le – lu – jah?  Will  I be  a - ble to speak at all?____ 

E|---------------------------------------------0-0-0-0------------------------------------|
B|----0----0----0----2---0----0----------------0-0-0-0------------------------------------|
G|-------------------------------2--2----------2-2-2-2---2---1----2---2----1-2---1--------|
D|----------------------------------------------------------------------------------4---2-|
A|----------------------------------------------------------------------------------------|
E|----------------------------------------------------------------------------------------|
      I   can   on - ly  im – ag - ine._____              I  can  on–ly  im-ag - ine


E|----0-----0--------------------------------------------|
B|----0-----0---------------0----------------------------|
G|----1-----1----------------------------1---------------|
D|----------------1-----2---------------------4-----2----|
A|--------------------------------2----2-----------------|
E|-------------------------------------------------------|

comments
print report bad tab
I want to post or [tab]
guest
You may want to rate the tab now too:
select rating
Please do not post tabs as comments. Select "correction" instead!