Oops, an error
Loading. Please wait.

Move Bass Tab

version 1
version 1

Whole song

3,838 views 3 this week
no commentswrite comment
1 2 3 4 5
please rate
add to favorites
launch autoscroll
font size
0
reset
guitar tuner
Autoscroll
slow
fast
+/-
esc
set tempo
stop
Help us to improve Ultimate-Guitar.com Take our survey!
×
Author
Difficulty
Tuning
novice
D A D G B E
Hey, it took me awhile to figure this out after looking at the guitar chords
because I didn't notice that Nathan Cochran is playing in drop D on the recording.

The bass doesn't come in until the first pre-chorus

Pre-Chorus
G:------------------------|
D:------------------------|
A:--8--5--0----8--5--7~~~-|
D:------------------------|

Chorus x2
G:-------------------------------------------------|
D:-------------------------------------------------|
A:----------3-----------5-3----------3-------------|
D:--7-5h7-7---5-7--5h7------3--3h5-5---5--0-2-3-6--|

Bridge
No bass :(

Verse 2 x2
G:---------------------------|
D:---------------------------|
A:---------------------------|
D:--7---5-7---5-3---2-3--3/5-|

Pre-Chorus

Chorus x2

Bridge x2
G:---------------|
D:---------------|
A:---------------|
D:--7--7--3--0-2-|

Pre-Chorus

Chorus x4

Outro
G:--------------------------|
D:--------------------------|
A:--------------------------|
D:--7---5-7---3---0-2-3-6-7-|

END
Suggest correction
Give kudos to tab author, rate the tab!
1 2 3 4 5
comments
print report bad tab
guest
You may want to rate the tab now too:
select rating
Wanna post a correction for this tab? Suggest correction