Oops, an error
Loading. Please wait.

Move Bass

version 2
version 2

Whole song

1,075 views 3 this week
no commentswrite comment
1 2 3 4 5
3 more votes to show rating
add to favorites
launch autoscroll
font size
0
reset
guitar tuner
×
Best way to learn
"Move"
Autoscroll
slow
fast
+/-
esc
set tempo
stop
Author
Difficulty
Tuning
  follow
intermediate
D A D G
The bass doesn't come in until the first pre-chorus

This is if you are playing in the key of C#m.

"/" = "Slide"
"h"= "Hammer-on"

Pre-Chorus1
G:--------------------------------|
D:--------------------------------|
A:--12--9--4----12--9--11~--------|
D:--------------------------------|

Chorus x2
G:----------------------------------------------------------|
D:----------------------------------------------------------|
A:------------7-----------9-7----------7--------------------|
D:--11-9h11-11-----11--9h11-------7--7h9--9------4-6-7-10----|

Bridge
No bass :(

Verse 2 x2
G:------------------------------|
D:------------------------------|
A:------------------------------|
D:--11---9-11---9-7---6-7--7/9--|

Pre-Chorus

Chorus x2

Bridge x2
G:-----------------|
D:-----------------|
A:-----------------|
D:--11--11--7--4-6-|

Pre-Chorus

Chorus x4

Outro
G:-----------------------------|
D:-----------------------------|
A:-----------------------------|
D:--11---9-11---7---4-6-7-10-11-|

END
Suggest correction
Give kudos to tab author, rate the tab!
1 2 3 4 5
comments
print report bad tab
guest
You may want to rate the tab now too:
select rating
Wanna post a correction for this tab? Suggest correction