Oops, an error
Loading. Please wait.

Bitch Tab

version 1
version 1

Whole song

Interactive

15,397 views 9 this week
3 commentsread comments
1 2 3 4 5
please rate
add to favorites
launch autoscroll
font size
0
reset
how to read this tab
guitar tuner
Tab Pro tools
  • play this tab
  • loop segment
  • change instrument
  • show fretboard
  • metronome
×
Best way to learn
"Bitch"
Autoscroll
slow
fast
+/-
esc
set tempo
stop
Meredith Brooks, Bitch.
 Tabbed by Amanda Holub, moonspyke@juno.com.
  
okay, since i havent found any REALLY good \"bitch\" tabs, i picked this one out by ear:
Okay, for the verses, usually you just play:
E:|
B:|
G:|
D:|
A:|0-7-5
E:|
and repeat that a bunch of times until the chorus, give it some attitude if you like.
chorus:
E:|-------------------------------------------------
B:|-------------------------------------------------
G:|-------------------------------------------------
D:|-------------------------------------------------
A:|--3-5--3-5-3--3-5--3-5-3------------------3-3-3-5
E:|4----4------4----4-------4-0-2-2-2-2-4-0-4-------

E:|-------------------------------------------------
B:|-------------------------------------------------
G:|-------------------------------------------------
D:|-------------------------------------------------
A:|--3-5--3-5-3-8-7-7-5-5-3-3-0-3-5-8-7-7-5-5-3-3---
E:|4----4-----------------------------------------0-

I hate the world today
your so good to me i know but i can't change
tryed to tell you but you look at me like maybe
i'm an angel underneath
innocent and sweet

Yesterday i cried
you must have been relieved to see the softer side
i can understand why you'd be so confused
i don't envy you
i'm a little bit of everything all rolled into one!

chorus:

I'm a bitch
i'm a lover
i'm a child
i'm a mother 
i'm a sinner
i'm a saint
i do not feel ashamed
i'm your hell
i'm your dream
i'm nothin' inbetween 
you know you wouldn't want it any other way 
:: Ultimate Guitar Archive :: 
http://www.ultimate-guitar.com 



comments
We did not receive enough feedback on this tab! Please rate:
print report bad tab
1 2 3 4 5
3 comments total.
0 reply
musichick820 wrote on April 20 2002, 12:00 am

what happened to the rest of the song????

0 reply
emperor wurm wrote on January 31 2007, 12:28 am

my version E-------- -2-2-2
(intro) B-------- -2-2-3
g-------- -2-3-2
d-7-7/9\5repeat then-4-4-0 im still figuring out theso
a-7-5/7\7 - solo
e-5------ -

0 reply
emperor wurm wrote on January 31 2007, 12:30 am

oh sorry u hve to arranged my first comment

I want to post or [tab]
guest
You may want to rate the tab now too:
select rating
Please do not post tabs as comments. Select "correction" instead!