Oops, an error
Loading. Please wait.

I Wont Give Up My Train Bass Tab

4 views 1 this week
no commentswrite comment
1 2 3 4 5
3 more votes to show rating
add to favorites
launch autoscroll
font size
0
reset
guitar tuner
Autoscroll
slow
fast
+/-
esc
set tempo
stop
Help us to improve Ultimate-Guitar.com Take our survey!
×
Author
Difficulty
novice
Tabbed by: 6METAL6BASSIST6
E-mail: petergriffinav@gmail.com

Tuning: EADG

From the album: Going Where The Lonely Go.

0:57

G|----------------------------------------------------------------|
D|--------------------------------3-------------------------------|
A|------------------------------------------------3---------------|
E|3---------------------------------------------------------------|

G|----------------------------------------------------------------|
D|3-------------------------------5-------------------------------|
A|----------------------------------------------------------------|
E|----------------------------------------------------------------|

G|--------------------------------|
D|--------------------------------|
A|--------------------------------|
E|3-------3---------------3-------|

1:02

G|----------------------------------------------------------------|.
D|----------------5---------------3---------------3---------------|.
A|3---------------------------------------------------------------|.
E|----------------------------------------------------------------|.
                                                                   . x2
G|----------------------------------------------------------------|.
D|----------------5---------------3---2---------------------------|.
A|3---------------------------------------5---3-------------------|.
E|----------------------------------------------------------------|.

1:24

G|----------------------------------------------------------------|
D|----------------5---------------3---------------3---------------|
A|----------------------------------------------------------------|
E|3---------------------------------------------------------------|

G|----------------------------------------------------------------|
D|----------------5-------------------------------5---------------|
A|3-------------------------------3-------------------------------|
E|----------------------------------------------------------------|

1:35

G|----------------------------------------------------------------|
D|----------------5---------------3---------------3---------------|
A|3---------------------------------------------------------------|
E|----------------------------------------------------------------|

G|----------------------------------------------------------------|
D|----------------5-------------------------------5---------------|
A|3-------------------------------3-------------------------------|
E|----------------------------------------------------------------|

G|----------------------------------------------------------------|
D|----------------5---------------3---------------3---------------|
A|3---------------------------------------------------------------|
E|----------------------------------------------------------------|

G|----------------------------------------------------------------|
D|5---------------5-------------------------------5---------------|
A|----------------------------------------------------------------|
E|--------------------------------3-------------------------------|

1:57

G|----------------------------------------------------------------|
D|3---------------3-------------------------------5---------------|
A|--------------------------------3-------------------------------|
E|----------------------------------------------------------------|

G|----------------------------------------------------------------|
D|3---------------3---------------5---------------5---------------|
A|----------------------------------------------------------------|
E|----------------------------------------------------------------|

G|--------------------------------|
D|--------------------------------|
A|--------------------------------|
E|3-------3---------------3-------|

2:12

G|----------------------------------------------------------------|.
D|----------------5---------------3---------------3---------------|.
A|3---------------------------------------------------------------|.
E|----------------------------------------------------------------|.
                                                                   . x2
G|----------------------------------------------------------------|.
D|----------------5---------------3---2---------------------------|.
A|3---------------------------------------5---3-------------------|.
E|----------------------------------------------------------------|.

2:34

G|----------------------------------------------------------------|
D|----------------5---------------3---------------3---------------|
A|----------------------------------------------------------------|
E|3---------------------------------------------------------------|

G|----------------------------------------------------------------|
D|----------------5-------------------------------5---------------|
A|3-------------------------------3-------------------------------|
E|----------------------------------------------------------------|

2:45

G|----------------------------------------------------------------|
D|----------------5---------------3---------------3---------------|
A|3---------------------------------------------------------------|
E|----------------------------------------------------------------|

G|----------------------------------------------------------------|
D|----------------5-------------------------------5---------------|
A|3-------------------------------3-------------------------------|
E|----------------------------------------------------------------|

G|----------------------------------------------------------------|
D|----------------5---------------3---------------3---------------|
A|3---------------------------------------------------------------|
E|----------------------------------------------------------------|

G|----------------------------------------------------------------|
D|----------------5-----------------------------------------------|
A|3-------------------------------3---------------3---------------|
E|----------------------------------------------------------------|

3:07

G|----------------------------------------------------------------|
D|----------------5---------------3---------------3---------------|
A|----------------------------------------------------------------|
E|3---------------------------------------------------------------|

G|----------------------------------------------------------------|
D|----------------5-----------------------------------------------|
A|3-------------------------------3-------------------------------|
E|----------------------------------------------------------------|

3:17

G|----------------------------------------------------------------|.
D|----------------5---------------3---------------3---------------|.
A|3---------------------------------------------------------------|.
E|----------------------------------------------------------------|.
                                                                   . x2
G|----------------------------------------------------------------|.
D|----------------5---------------3---2---------------------------|.
A|3---------------------------------------5---3-------------------|.
E|----------------------------------------------------------------|.

3:40

G|----------------------------------------------------------------|
D|----------------5---------------3---------------3---------------|
A|----------------------------------------------------------------|
E|3---------------------------------------------------------------|

G|----------------------------------------------------------------|
D|----------------5-------------------------------5---------------|
A|3-------------------------------3-------------------------------|
E|----------------------------------------------------------------|

3:51

G|----------------------------------------------------------------|.
D|----------------5---------------3---------------3---------------|.
A|3---------------------------------------------------------------|.
E|----------------------------------------------------------------|.
                                                                   . x2
G|----------------------------------------------------------------|.
D|----------------5-------------------------------5---------------|.
A|3-------------------------------3-------------------------------|.
E|----------------------------------------------------------------|.

4:12

G|----------------------------------------------------------------|
D|----------------5---------------3---------------3---------------|
A|----------------------------------------------------------------|
E|3---------------------------------------------------------------|

G|----------------------------------------------------------------|
D|----------------5-------------------------------5---------------|
A|3-------------------------------3-------------------------------|
E|----------------------------------------------------------------|

G|----------------------------------------------------------------|
D|----------------5---------------3---------------3---------------|
A|3---------------------------------------------------------------|
E|----------------------------------------------------------------|

G|--------------------------------|
D|----------------5---------------| fades out here.
A|3-------------------------------|
E|--------------------------------|
Suggest correction
Give kudos to tab author, rate the tab!
1 2 3 4 5
comments
print report bad tab
guest
You may want to rate the tab now too:
select rating
Wanna post a correction for this tab? Suggest correction