Oops, an error
Loading. Please wait.

If I Left It Up To You Bass Tab

7 views 1 this week
no commentswrite comment
1 2 3 4 5
3 more votes to show rating
add to favorites
launch autoscroll
font size
0
reset
guitar tuner
Autoscroll
slow
fast
+/-
esc
set tempo
stop
Help us to improve Ultimate-Guitar.com Take our survey!
×
Author
Difficulty
novice
Tabbed by: 6METAL6BASSIST6
E-mail: petergriffinav@gmail.com

Tuning: EADG

G|------------------------------------------------------------------------------------------------|
D|7-----------------------------------------------7-----------------------------7-----6-----------|
A|------------7-----7-----5-----5-----7-----9-----------9-----7-----4-----------------------9-----|
E|------------------------------------------------------------------------5-----------------------|

G|------------------------------------------------------------------------------------------------|
D|------6-----9-----6-----------------------------------------------6-----7-----------------6-----|
A|7-----------------------7-----------------6-----7-----7-----9-----------------7-----9-----------|
E|------------------------------7-----9-----------------------------------------------------------|

G|------------------------|
D|7-----------------6-----|
A|------7-----9-----------|
E|------------------------|

0:19

G|------------------------------------------------------------------------------------------------|
D|------------------------------------7-----------------------------------7-----7-----6-----------|
A|------4-----7-----6-----5-----5-----------5-----------4-----7-----9-----------------------9-----|
E|5-----------------------------------------------5-----------------------------------------------|

G|------------------------------------------------------------------------------------------------|
D|------6-----9-----6-----------------------------------------------------7-----------------------|
A|7-----------------------7-----5-----4-----------------4-----7-----9-----------9-----7-----4-----|
E|------------------------------------------7-----5-----------------------------------------------|

0:34

G|------------------------------------------------------------------------------------------------|
D|------------------------------------------------7-----------------------------7-----6-----------|
A|------------------4-----5-----5-----7-----9-----------9-----7-----4-----------------------9-----|
E|5-----5-----7-----------------------------------------------------------5-----------------------|

G|------------------------------------------------------------------------------------------------|
D|------6-----9-----6-----------------------------------------------6-----7-----------------6-----|
A|7-----------------------7-----------------6-----7-----7-----9-----------------7-----9-----------|
E|------------------------------7-----9-----------------------------------------------------------|

G|------------------------|
D|7-----7-----6-----------|
A|------------------9-----|
E|------------------------|

0:52

G|------------------------------------------------------------------------------------------------|
D|------6-----9-----6-----------6-----9-----6-----------4-----7-----4-----------------------------|
A|7-----------------------7-----------------------5-----------------------------4-----5-----6-----|
E|------------------------------------------------------------------------5-----------------------|

G|------------------------------------------------------------------------------------------------|
D|------6-----9-----6-----------------------6-----------------------------------------------6-----|
A|7-----------------------7-----7-----9-----------------4-----5-----6-----7-----7-----9-----------|
E|------------------------------------------------5-----------------------------------------------|

1:08

G|------------------------------------------------------------------------------------------------|
D|------------------------------------------------7-----------------------------7-----6-----------|
A|------4-----7-----6-----5-----5-----7-----9-----------9-----7-----4-----------------------9-----|
E|5-----------------------------------------------------------------------5-----------------------|

G|------------------------------------------------------------------------------------------------|
D|------6-----9-----6-----------------------------------------------6-----------------------------|
A|7-----------------------7-----------------6-----7-----7-----9-----------------4-----7-----9-----|
E|------------------------------7-----9-----------------------------------5-----------------------|

G|------------------------|
D|7---7-------------6-----|
A|------7-----9-----------|
E|------------------------|

1:25

G|------------------------------------------------------------------------------------------------|
D|------------------------------4-----7-----4-----------------------------7-----7-----6-----------|
A|------4-----7-----6-----5-----------------------------4-----7-----9-----------------------9-----|
E|5-----------------------------------------------5-----------------------------------------------|

G|------------------------------------------------------------------------------------------------|
D|------6-----9-----6-----------6-----9-----6-----------------------------7---7-------------6-----|
A|7-----------------------7-----------------------------4-----7-----9-----------7-----9-----------|
E|------------------------------------------------5-----------------------------------------------|

1:41

G|------------------------------------------------------------------------------------------------|
D|------------------------------4-----7-----4-----------------------6-----7-----7-----6-----------|
A|------4-----7-----6-----5-----------------------------4-----7-----------------------------9-----|
E|5-----------------------------------------------5-----------------------------------------------|

G|------------------------------------------------------------------------------------------------|
D|------6-----9-----6-----------------------------------------------6-----7-----------------6-----|
A|7-----------------------7-----------------6-----7-----7-----9-----------------7-----9-----------|
E|------------------------------7-----9-----------------------------------------------------------|

G|------------------------|
D|7---7-------------------|
A|------7-----5-----6-----|
E|------------------------|

1:56

G|------------------------------------------------------------------------------------------------|
D|------6-----9-----6-----------6-----9-----6-----------------------------------------------------|
A|7-----------------------7-----------------------5-----5-----5-----5-----------4-----5-----6-----|
E|------------------------------------------------------------------------5-----------------------|

G|------------------------------------------------------------------------------------------------|
D|------6-----9-----6-----------6-----9-----6-----7-----7-----6-----------------------------------|
A|7-----------------------7-----------------------------------------9-----7-----5-----4-----------|
E|------------------------------------------------------------------------------------------7-----|

2:13

G|------------------------------------------------------------------------------------------------|
D|------------------------------------------------7-----------------------------7-----6-----------|
A|------------------4-----5-----5-----7-----9-----------9-----7-----4-----------------------9-----|
E|5-----5-----7-----------------------------------------------------------5-----------------------|

G|------------------------------------------------------------------------------------------------|
D|------6-----9-----6-----------------------------------------------6-----7-----------------6-----|
A|7-----------------------7-----------------6-----7-----7-----9-----------------7-----9-----------|
E|------------------------------7-----9-----------------------------------------------------------|

G|------------------------|
D|7-----------------------|
A|------7-----------------|
E|------------5-----------|
Suggest correction
Give kudos to tab author, rate the tab!
1 2 3 4 5
comments
print report bad tab
guest
You may want to rate the tab now too:
select rating
Wanna post a correction for this tab? Suggest correction