Oops, an error
Loading. Please wait.

Rosas Para Mi Muerte Tab

version 3
version 3

Whole song

435 views 1 this week
no commentswrite comment
1 2 3 4 5
3 more votes to show rating
add to favorites
launch autoscroll
font size
0
reset
how to read this tab
guitar tuner
Autoscroll
slow
fast
+/-
esc
set tempo
stop
Help us to improve Ultimate-Guitar.com Take our survey!
×
Intro:  C#m-B -A-G#

1------------------ ------------------------------------------
2-4/9-9-9-7-4-4/5-- -4/9-9-9-9/7-7-7/9-7-7---4/9-9-9-7-9-9/10-
3------------------ ------------------------------------------
4------------------ ------------------------------------------
5------------------ ------------------------------------------
6------------------ ------------------------------------------

1----------------------
2-4/9-9-9-9/7-4--5-4---
3----------------------
4----------------------
5----------------------
6---------------------- (2 veces)


                  [ch]C#m     [ch]BM2[/ch]        DO#m[/ch]
Por que lloras por mi porque asi derrepente
                    [ch]A                    SI [/ch]
si aquel tiempo perdido es el que no he vivido
              [ch]C#m[/ch]
y no puedo volver

(repiten notas)
               [ch]C#m       [ch]BM2[/ch]        DO#m[/ch]
por que sufres asi a pesar que la muerte
                [ch]A                    SI [/ch]
es el mejor castigo de un sueño que nunca
            [ch]C#m[/ch]
he podido entender


CORO
           [ch]A [/ch]-SM              [ch]C#m[/ch]
y solo pedire rosas para mi muerte
            [ch]A [/ch]
ya en tus manos tendre la razon de
 [ch]B [/ch]                   [ch]C#m[/ch]
escoger rosas para mi muerte (x2)


  INTRO:   C#m-B -A-G# (todo el punteo)

                  [ch]C#m     [ch]BM2[/ch]        DO#m[/ch]
Por que lloras por mí por que asi de repente
                    [ch]A                    SI [/ch]
si el camino seguido es el que me ha perdido
              [ch]C#m[/ch]
y no puedo volver

                  [ch]C#m     [ch]BM2[/ch]        DO#m[/ch]
por que sufres asi al pensar que tu suerte
                    [ch]A                    SI [/ch]
es un juego divino sin paz sin sentido
              [ch]C#m[/ch]
y no puedo escoger

CORO
           [ch]A [/ch]-SM              [ch]C#m[/ch]
y solo pedire rosas para mi muerte
            [ch]A [/ch]
ya en tus manos tendre la razon de
 [ch]B [/ch]                   [ch]C#m[/ch]
escoger rosas para mi muerte (x2)


SOLO:   acordes del intro

e|-------------------------------------7----------------------------------|
B|-------5---5-7-7b9~-/5---5-7-7b9-9-9---7b9~----12h14p12h14---10h12p10h12|
G|--/6-6---6-------------6------------------------------------------------|
D|------------------------------------------------------------------------|
A|------------------------------------------------------------------------|
E|------------------------------------------------------------------------|

e|------------------------------------------------------------------------|
B|--9h10p9h10---7h9p7h9---5h7p5h7---4h5p4--------5-7-7b9--7/5-7b9--7-5----|
G|----------------------------------------6~-6-8-----------------------8~-|
D|------------------------------------------------------------------------|
A|------------------------------------------------------------------------|
E|------------------------------------------------------------------------|

e|------------------------------------------------------------------------|
B|------------------------------------------------------------------------|
G|-6-6--8-8--9-9--11-11--9-8/6--8/9--9-8----------------------------------|
D|-6-6--8-8--9-9--11-11--9-8/6--8/9--9-8----------------------------------|
A|-4-4--6-6--7-7--9--9---7-6/4--6/7--7-6----------------------------------|
E|------------------------------------------------------------------------|

e|----------19----------19----------19------------------------------------|
B|-19b-(21)----19b-(21)----19b-(21)-----19p18p17----19-17--19b-(21)-------|
G|------------------------------------------------------------------------|
D|------------------------------------------------------------------------|
A|------------------------------------------------------------------------|
E|------------------------------------------------------------------------|

e|------------------------------------|
B|-19h21p19---------------------------|
G|------------------------------------|
D|------------------------------------|
A|------------------------------------|
E|------------------------------------|
e|------------------------------------------------------------------------|
B|-21p19p17--19p17p16--17p16p14--12h12h14---------------------------------|
G|------------------------------------------------------------------------|
D|------------------------------------------------------------------------|
A|------------------------------------------------------------------------|
E|------------------------------------------------------------------------|

Esto lo hace la segunda guitarra:
            4 veces                         4 veces
e|------------------------------|------------------------------|----------|
B|------------------------------|------------------------------|----------|
G|---9-8---9-8---11-9-8-9-8-8---|----9-7-5-9-7-5-10-9-7-9-7----|----------|
D|-9-----9-----9--------------9-|--8------------------------8--|----------|
A|------------------------------|------------------------------|----------|
E|------------------------------|------------------------------|----------|
                                  3 veces
             F#                   E                   D#
e|----------------------|--------------------|----------------------------|
B|-10-9-7--10-9-7--10-7-|--9-7-5--9-7-5--9-5-|--7-5-4--7-5-4--7-4---------|
G|----------------------|--------------------|----------------------------|
D|----------------------|--------------------|----------------------------|
A|----------------------|--------------------|----------------------------|
E|----------------------|--------------------|----------------------------|
              C#m
e|------------------------------------|
B|-5-4-2--5-4-2--5-2------------------|
G|------------------------------------|
D|------------------------------------|
A|------------------------------------|
E|------------------------------------|
la 4ta va asi:
           F#                     E               D#
e|-----------------------|--------------------|--------------------|
B|--10-9-7--10-9-7--10-7-|--9-7-5--9-7-5--9-5-|--7~~~--------------|
G|-----------------------|--------------------|--------------------|
D|-----------------------|--------------------|--------------------|
A|-----------------------|--------------------|--------------------|
E|-----------------------|--------------------|--------------------|
repetir coro

           [ch]A -B [/ch]              [ch]C#m[/ch]
y solo pediré Rosas para mi muerte
            [ch]A -SI [/ch]                   [ch]C#m[/ch]
y en tus manos tendré Rosas para mi muerte
           [ch]A -B [/ch]              [ch]C#m[/ch]
y solo esperare Rosas para mi muerte
            [ch]A -SI [/ch]                   [ch]C#m[/ch]
y en tus manos tendré Rosas para mi muerte.


Correcciones preguntas dudas o cualquier mierd@ de guitarra
me pueden escribir a axl_s48@
Suggest correction
Give kudos to tab author, rate the tab!
1 2 3 4 5
comments
print report bad tab
guest
You may want to rate the tab now too:
select rating
Wanna post a correction for this tab? Suggest correction