Oops, an error
Loading. Please wait.

Corridor Of Chameleons tab

version 2
version 2

Whole song

Interactive

563 views 3 this week
no commentswrite comment
1 2 3 4 5
3 more votes to show rating
add to favorites
×
Save as Personal and add changes to this tab that will be seen only by you. Learn more ›
×
You can save this tab as Personal to edit and correct it or add notes. All changes will be seen only by you. Learn more »
launch autoscroll
font size
0
reset
how to read this tab
guitar tuner
edit
Autoscroll
slow
fast
+/-
esc
set tempo
stop
Guitar 1

D#||-------------------------------|----------------------------|
A#||-------------------------------|----------------------------|
F#||-------------------------------|----------------------------|
C#||--2-2-2-2-2-2-2----2-2-2-2-2-2-|--2----2-2-2-2-2-2-2----2-2-|
G#||--2-2-2-2-2-2-2----2-2-2-2-2-2-|--2----2-2-2-2-2-2-2----2-2-|
D#||--0-0-0-0-0-0-0----0-0-0-0-0-0-|--0----0-0-0-0-0-0-0----0-0-|
A#||-------------------------------|----------------------------|


                                                             3x
------------------------------|------------------------------||
------------------------------|------------------------------||
------------------------------|------------------------------||
--2-2-2-2-2----2-2-2-2-2-2-2--|----2-2-2-2-2-2-2----2-2-2-2--||
--2-2-2-2-2----2-2-2-2-2-2-2--|----2-2-2-2-2-2-2----2-2-2-2--||
--0-0-0-0-0----0-0-0-0-0-0-0--|----0-0-0-0-0-0-0----0-0-0-0--||
------------------------------|------------------------------||


                                                             
-------------------------------|----------------------------|
-------------------------------|----------------------------|
-------------------------------|----------------------------|
--2-2-2-2-2-2-2----2-2-2-2-2-2-|--2----2-2-2-2-2-2-2----2-2-|
--2-2-2-2-2-2-2----2-2-2-2-2-2-|--2----2-2-2-2-2-2-2----2-2-|
--0-0-0-0-0-0-0----0-0-0-0-0-0-|--0----0-0-0-0-0-0-0----0-0-|
-------------------------------|----------------------------|


                                                             3x
------------------------------|------------------------------||
------------------------------|------------------------------||
------------------------------|------------------------------||
--2-2-2-2-2----2-2-2-2-2-2-2--|----2-2-2-2-2-2-2----2-2-2-2--||
--2-2-2-2-2----2-2-2-2-2-2-2--|----2-2-2-2-2-2-2----2-2-2-2--||
--0-0-0-0-0----0-0-0-0-0-0-0--|----0-0-0-0-0-0-0----0-0-0-0--||
------------------------------|------------------------------||


                                                             3x
-------------------------------|-----------------------------||
-------------------------------|-----------------------------||
-------------------------------|-----------------------------||
--4-4-4-4-4-4-4----4-4-4-4-4-4-|--4----4-4-4-4-4-4-4----4-4--||
--4-4-4-4-4-4-4----4-4-4-4-4-4-|--4----4-4-4-4-4-4-4----4-4--||
--2-2-2-2-2-2-2----2-2-2-2-2-2-|--2----2-2-2-2-2-2-2----2-2--||
-------------------------------|-----------------------------||


                                                             
-------------------------------|----------------------------|
-------------------------------|----------------------------|
-------------------------------|----------------------------|
--2-2-2-2-2-2-2----2-2-2-2-2-2-|--2----2-2-2-2-2-2-2----2-2-|
--2-2-2-2-2-2-2----2-2-2-2-2-2-|--2----2-2-2-2-2-2-2----2-2-|
--0-0-0-0-0-0-0----0-0-0-0-0-0-|--0----0-0-0-0-0-0-0----0-0-|
-------------------------------|----------------------------|


                                                             3x
------------------------------|------------------------------||
------------------------------|------------------------------||
------------------------------|------------------------------||
--2-2-2-2-2----2-2-2-2-2-2-2--|----2-2-2-2-2-2-2----2-2-2-2--||
--2-2-2-2-2----2-2-2-2-2-2-2--|----2-2-2-2-2-2-2----2-2-2-2--||
--0-0-0-0-0----0-0-0-0-0-0-0--|----0-0-0-0-0-0-0----0-0-0-0--||
------------------------------|------------------------------||


                                                                       
-----------------------|-----------------------|----------------------|
-----------------------|-----------------------|----------------------|
-----------------------|-----------------------|----------------------|
-----------------------|-----------------------|----------------------|
-----------------------|-----------------------|----------------------|
-------5----5-------5--|----5-------5----5-----|----5----5-------5----|
--3b---3----3--3b---3--|----3--3b---3----3--3b-|----3----3--3b---3----|


                        3x                                                
------------------------||-----------------------|-----------------------|
------------------------||-----------------------|-----------------------|
------------------------||-----------------------|-----------------------|
------------------------||-----------------------|-----------------------|
------------------------||-----------------------|-----------------------|
--5-------5----5--------||-------4----4-------4--|----4-------4-------4--|
--3--3b---3----3--3b----||--2b---2----2--2b---2--|----2--2b---2--2b---2--|


                                                                       
----------------------|-----------------------|-----------------------|
----------------------|-----------------------|-----------------------|
----------------------|-----------------------|-----------------------|
----------------------|-----------------------|-----------------------|
----------------------|-----------------------|-----------------------|
----4-------4----4----|--4-------4----4-------|--4----4-------4-------|
----2--2b---2----2----|--2--2b---2----2--2b---|--2----2--2b---2--2b---|


                                                                        
-----------------------|-----------------------|-----------------------|
-----------------------|-----------------------|-----------------------|
-----------------------|-----------------------|-----------------------|
-----------------------|-----------------------|-----------------------|
-----------------------|-----------------------|-----------------------|
--4----4-------4----4--|----4-------4----4-----|----4----4-------4--4--|
--2----2--2b---2----2--|----2--2b---2----2--2b-|----2----2--2b---2--2--|


                                                                       
-----------------------|-----------------------|----------------------|
-----------------------|-----------------------|----------------------|
-----------------------|-----------------------|----------------------|
-----------------------|-----------------------|----------------------|
-----------------------|-----------------------|----------------------|
-------4----4-------4--|----4-------4-------4--|----4-------4----4----|
--2b---2----2--2b---2--|----2--2b---2--2b---2--|----2--2b---2----2----|


                                                                        
-----------------------|-----------------------|-----------------------|
-----------------------|-----------------------|-----------------------|
-----------------------|-----------------------|-----------------------|
-----------------------|-----------------------|-----------------------|
-----------------------|-----------------------|-----------------------|
--4-------4----4-------|--4----4-------4-------|--4----4-------4----4--|
--2--2b---2----2--2b---|--2----2--2b---2--2b---|--2----2--2b---2----2--|


                                                                       
-----------------------|---------------------||-----------------------|
-----------------------|---------------------||-----------------------|
-----------------------|---------------------||-----------------------|
-----------------------|---------------------||-----------------------|
-----------------------|---------------------||-----------------------|
----4-------4----4-----|----4----4--4--------||-------4----4-------4--|
----2--2b---2----2--2b-|----2----2--2--------||--2b---2----2--2b---2--|


                                                                       
-----------------------|----------------------|-----------------------|
-----------------------|----------------------|-----------------------|
-----------------------|----------------------|-----------------------|
-----------------------|----------------------|-----------------------|
-----------------------|----------------------|-----------------------|
----4-------4-------4--|----4-------4----4----|--4-------4----4-------|
----2--2b---2--2b---2--|----2--2b---2----2----|--2--2b---2----2--2b---|


                                                                        
-----------------------|-----------------------|-----------------------|
-----------------------|-----------------------|-----------------------|
-----------------------|-----------------------|-----------------------|
-----------------------|-----------------------|-----------------------|
-----------------------|-----------------------|-----------------------|
--4----4-------4-------|--4----4-------4----4--|----4-------4----4-----|
--2----2--2b---2--2b---|--2----2--2b---2----2--|----2--2b---2----2--2b-|


                                                                       
------------------------||---------------------|----------------------|
------------------------||---------------------|----------------------|
------------------------||---------------------|----------------------|
------------------------||---------------------|----------------------|
------------------------||------2--2--------2--|--2--------2--2----2--|
----4----4-------4--4---||------2--2--------2--|--2--------2--2----2--|
----2----2--2b---2--2---||------0--0--------0--|--0--------0--0----0--|


                                                                    
---------------------|----------------------|----------------------|
---------------------|----------------------|----------------------|
---------------------|----------------------|----------------------|
---------------------|----------------------|----------------------|
--2--------2--2------|----2--2--------2--2--|----2--2--------2--2--|
--2--------2--2------|----2--2--------2--2--|----2--2--------2--2--|
--0--------0--0------|----0--0--------0--0--|----0--0--------0--0--|


                                                                     
--------------------|----------------------|-----------------------||
--------------------|----------------------|-----------------------||
--------------------|----------------------|-----------------------||
--------------------|----------------------|-----------------------||
--------2--2--------|--2--2----2--2--------|--2--2--------2--2-----||
--------2--2--------|--2--2----2--2--------|--2--2--------2--2-----||
--------0--0--------|--0--0----0--0--------|--0--0--------0--0-----||


                                                                      
----------------------||----------------------|----------------------|
----------------------||----------------------|----------------------|
----------------------||----------------------|----------------------|
----------------------||----------------------|----------------------|
--2--2--------2--2----||--3----2--2--------2--|--2--------2--2----2--|
--2--2--------2--2----||--3----2--2--------2--|--2--------2--2----2--|
--0--0--------0--0----||--1----0--0--------0--|--0--------0--0----0--|


                                                                    
---------------------|----------------------|----------------------|
---------------------|----------------------|----------------------|
---------------------|----------------------|----------------------|
---------------------|----------------------|----------------------|
--2--------2--2------|----2--2--------2--2--|----2--2--------2--2--|
--2--------2--2------|----2--2--------2--2--|----2--2--------2--2--|
--0--------0--0------|----0--0--------0--0--|----0--0--------0--0--|


                                                                     
--------------------|----------------------|-----------------------||
--------------------|----------------------|-----------------------||
--------------------|----------------------|-----------------------||
--------------------|----------------------|-----------------------||
--------2--2--------|--2--2----2--2--------|--2--2--------2--2-----||
--------2--2--------|--2--2----2--2--------|--2--2--------2--2-----||
--------0--0--------|--0--0----0--0--------|--0--0--------0--0-----||


                                                                          
----------------------||------------------------|------------------------|
----------------------||------------------------|------------------------|
----------------------||------------------------|------------------------|
----------------------||------------------------|------------------------|
--2--2--------2--2----||--4--4--4----4--4-------|----4--4--4----4--4--4--|
--2--2--------2--2----||--4--4--4----4--4-------|----4--4--4----4--4--4--|
--0--0--------0--0----||--2--2--2----2--2----1b-|----2--2--2----2--2--2--|


                                                                         
-----------------------|-----------------------|------------------------|
-----------------------|-----------------------|------------------------|
-----------------------|-----------------------|------------------------|
-----------------------|-----------------------|------------------------|
---------4--4--4----4--|--4---------4--4--4----|--4--4--4---------4--4--|
---------4--4--4----4--|--4---------4--4--4----|--4--4--4---------4--4--|
----1b---2--2--2----2--|--2----1b---2--2--2----|--2--2--2----1b---2--2--|


                                                                          
-----------------------|------------------------|-----------------------||
-----------------------|------------------------|-----------------------||
-----------------------|------------------------|-----------------------||
-----------------------|------------------------|-----------------------||
--4----4--4---------4--|--4--4----4--4--4-------|----4--4--4------------||
--4----4--4---------4--|--4--4----4--4--4-------|----4--4--4------------||
--2----2--2----1b---2--|--2--2----2--2--2----1b-|----2--2--2----1b------||


                                                                    
----------------------|----------------------|---------------------|
----------------------|----------------------|---------------------|
----------------------|----------------------|---------------------|
----------------------|----------------------|---------------------|
--3----2--2--------2--|--2--------2--2----2--|--2--------2--2------|
--3----2--2--------2--|--2--------2--2----2--|--2--------2--2------|
--1----0--0--------0--|--0--------0--0----0--|--0--------0--0------|


                                                                   
----------------------|----------------------|--------------------|
----------------------|----------------------|--------------------|
----------------------|----------------------|--------------------|
----------------------|----------------------|--------------------|
----2--2--------2--2--|----2--2--------2--2--|--------2--2--------|
----2--2--------2--2--|----2--2--------2--2--|--------2--2--------|
----0--0--------0--0--|----0--0--------0--0--|--------0--0--------|


                                                                        
----------------------|-----------------------||-----------------------|
----------------------|-----------------------||-----------------------|
----------------------|-----------------------||-----------------------|
----------------------|-----------------------||-----------------------|
--2--2----2--2--------|--2--2--------2--2-----||-----------------------|
--2--2----2--2--------|--2--2--------2--2-----||-------4----4-------4--|
--0--0----0--0--------|--0--0--------0--0-----||--2b---2----2--2b---2--|


                                                                       
-----------------------|----------------------|-----------------------|
-----------------------|----------------------|-----------------------|
-----------------------|----------------------|-----------------------|
-----------------------|----------------------|-----------------------|
-----------------------|----------------------|-----------------------|
----4-------4-------4--|----4-------4----4----|--4-------4----4-------|
----2--2b---2--2b---2--|----2--2b---2----2----|--2--2b---2----2--2b---|


                                                                        
-----------------------|-----------------------|-----------------------|
-----------------------|-----------------------|-----------------------|
-----------------------|-----------------------|-----------------------|
-----------------------|-----------------------|-----------------------|
-----------------------|-----------------------|-----------------------|
--4----4-------4-------|--4----4-------4----4--|----4-------4----4-----|
--2----2--2b---2--2b---|--2----2--2b---2----2--|----2--2b---2----2--2b-|


                        5x
------------------------||
------------------------||
------------------------||
------------------------||
------------------------||
----4----4-------4--4---||
----2----2--2b---2--2---||

============================================================================
                               guitar 2
============================================================================

D#||-------------------------------|----------------------------|
A#||-------------------------------|----------------------------|
F#||-------------------------------|----------------------------|
C#||--2-2-2-2-2-2-2----2-2-2-2-2-2-|--2----2-2-2-2-2-2-2----2-2-|
G#||--2-2-2-2-2-2-2----2-2-2-2-2-2-|--2----2-2-2-2-2-2-2----2-2-|
D#||--0-0-0-0-0-0-0----0-0-0-0-0-0-|--0----0-0-0-0-0-0-0----0-0-|
A#||-------------------------------|----------------------------|


                                                             3x
------------------------------|------------------------------||
------------------------------|------------------------------||
------------------------------|------------------------------||
--2-2-2-2-2----2-2-2-2-2-2-2--|----2-2-2-2-2-2-2----2-2-2-2--||
--2-2-2-2-2----2-2-2-2-2-2-2--|----2-2-2-2-2-2-2----2-2-2-2--||
--0-0-0-0-0----0-0-0-0-0-0-0--|----0-0-0-0-0-0-0----0-0-0-0--||
------------------------------|------------------------------||


                                                             
-------------------------------|----------------------------|
-------------------------------|----------------------------|
-------------------------------|----------------------------|
--2-2-2-2-2-2-2----2-2-2-2-2-2-|--2----2-2-2-2-2-2-2----2-2-|
--2-2-2-2-2-2-2----2-2-2-2-2-2-|--2----2-2-2-2-2-2-2----2-2-|
--0-0-0-0-0-0-0----0-0-0-0-0-0-|--0----0-0-0-0-0-0-0----0-0-|
-------------------------------|----------------------------|


                                                             3x
------------------------------|------------------------------||
------------------------------|------------------------------||
------------------------------|------------------------------||
--2-2-2-2-2----2-2-2-2-2-2-2--|----2-2-2-2-2-2-2----2-2-2-2--||
--2-2-2-2-2----2-2-2-2-2-2-2--|----2-2-2-2-2-2-2----2-2-2-2--||
--0-0-0-0-0----0-0-0-0-0-0-0--|----0-0-0-0-0-0-0----0-0-0-0--||
------------------------------|------------------------------||


                                                             3x
-------------------------------|-----------------------------||
-------------------------------|-----------------------------||
-------------------------------|-----------------------------||
--4-4-4-4-4-4-4----4-4-4-4-4-4-|--4----4-4-4-4-4-4-4----4-4--||
--4-4-4-4-4-4-4----4-4-4-4-4-4-|--4----4-4-4-4-4-4-4----4-4--||
--2-2-2-2-2-2-2----2-2-2-2-2-2-|--2----2-2-2-2-2-2-2----2-2--||
-------------------------------|-----------------------------||


                                                             
-------------------------------|----------------------------|
-------------------------------|----------------------------|
-------------------------------|----------------------------|
--2-2-2-2-2-2-2----2-2-2-2-2-2-|--2----2-2-2-2-2-2-2----2-2-|
--2-2-2-2-2-2-2----2-2-2-2-2-2-|--2----2-2-2-2-2-2-2----2-2-|
--0-0-0-0-0-0-0----0-0-0-0-0-0-|--0----0-0-0-0-0-0-0----0-0-|
-------------------------------|----------------------------|


                                                             3x
------------------------------|------------------------------||
------------------------------|------------------------------||
------------------------------|------------------------------||
--2-2-2-2-2----2-2-2-2-2-2-2--|----2-2-2-2-2-2-2----2-2-2-2--||
--2-2-2-2-2----2-2-2-2-2-2-2--|----2-2-2-2-2-2-2----2-2-2-2--||
--0-0-0-0-0----0-0-0-0-0-0-0--|----0-0-0-0-0-0-0----0-0-0-0--||
------------------------------|------------------------------||


                                                                       
-----------------------|-----------------------|----------------------|
-----------------------|-----------------------|----------------------|
-----------------------|-----------------------|----------------------|
-----------------------|-----------------------|----------------------|
-----------------------|-----------------------|----------------------|
-------5----5-------5--|----5-------5----5-----|----5----5-------5----|
--3b---3----3--3b---3--|----3--3b---3----3--3b-|----3----3--3b---3----|


                        3x                                                
------------------------||-----------------------|-----------------------|
------------------------||-----------------------|-----------------------|
------------------------||-----------------------|-----------------------|
------------------------||-----------------------|-----------------------|
------------------------||-----------------------|-----------------------|
--5-------5----5--------||-------4----4-------4--|----4-------4-------4--|
--3--3b---3----3--3b----||--2b---2----2--2b---2--|----2--2b---2--2b---2--|


                                                                       
----------------------|-----------------------|-----------------------|
----------------------|-----------------------|-----------------------|
----------------------|-----------------------|-----------------------|
----------------------|-----------------------|-----------------------|
----------------------|-----------------------|-----------------------|
----4-------4----4----|--4-------4----4-------|--4----4-------4-------|
----2--2b---2----2----|--2--2b---2----2--2b---|--2----2--2b---2--2b---|


                                                                        
-----------------------|-----------------------|-----------------------|
-----------------------|-----------------------|-----------------------|
-----------------------|-----------------------|-----------------------|
-----------------------|-----------------------|-----------------------|
-----------------------|-----------------------|-----------------------|
--4----4-------4----4--|----4-------4----4-----|----4----4-------4--4--|
--2----2--2b---2----2--|----2--2b---2----2--2b-|----2----2--2b---2--2--|


                                                                       
-----------------------|-----------------------|----------------------|
-----------------------|-----------------------|----------------------|
-----------------------|-----------------------|----------------------|
-----------------------|-----------------------|----------------------|
-----------------------|-----------------------|----------------------|
-------4----4-------4--|----4-------4-------4--|----4-------4----4----|
--2b---2----2--2b---2--|----2--2b---2--2b---2--|----2--2b---2----2----|


                                                                        
-----------------------|-----------------------|-----------------------|
-----------------------|-----------------------|-----------------------|
-----------------------|-----------------------|-----------------------|
-----------------------|-----------------------|-----------------------|
-----------------------|-----------------------|-----------------------|
--4-------4----4-------|--4----4-------4-------|--4----4-------4----4--|
--2--2b---2----2--2b---|--2----2--2b---2--2b---|--2----2--2b---2----2--|


                                                                       
-----------------------|---------------------||-----------------------|
-----------------------|---------------------||-----------------------|
-----------------------|---------------------||-----------------------|
-----------------------|---------------------||-----------------------|
-----------------------|---------------------||-----------------------|
----4-------4----4-----|----4----4--4--------||-------4----4-------4--|
----2--2b---2----2--2b-|----2----2--2--------||--2b---2----2--2b---2--|


                                                                       
-----------------------|----------------------|-----------------------|
-----------------------|----------------------|-----------------------|
-----------------------|----------------------|-----------------------|
-----------------------|----------------------|-----------------------|
-----------------------|----------------------|-----------------------|
----4-------4-------4--|----4-------4----4----|--4-------4----4-------|
----2--2b---2--2b---2--|----2--2b---2----2----|--2--2b---2----2--2b---|


                                                                        
-----------------------|-----------------------|-----------------------|
-----------------------|-----------------------|-----------------------|
-----------------------|-----------------------|-----------------------|
-----------------------|-----------------------|-----------------------|
-----------------------|-----------------------|-----------------------|
--4----4-------4-------|--4----4-------4----4--|----4-------4----4-----|
--2----2--2b---2--2b---|--2----2--2b---2----2--|----2--2b---2----2--2b-|


                                                                                
------------------------||--8---8-------8---8---8-----|----8---8---8-----------|
------------------------||--12--12------12--12--12----|----12--12--12----------|
------------------------||----------------------------|------------------------|
------------------------||----------------------------|------------------------|
------------------------||----------------------------|------------------------|
----4----4-------4--4---||----------------------------|------------------------|
----2----2--2b---2--2---||----------------------------|------------------------|


                                                        
----8---8---8-------8---8---|--8-------8---8---8-------|
----12--12--12------12--12--|--12------12--12--12------|
----------------------------|--------------------------|
----------------------------|--------------------------|
----------------------------|--------------------------|
----------------------------|--------------------------|
----------------------------|--------------------------|


                                                        
--------8---8---8-------|--8---8---8-------8---8---8---|
--------12--12--12------|--12--12--12------12--12--12--|
------------------------|------------------------------|
------------------------|------------------------------|
------------------------|------------------------------|
------------------------|------------------------------|
------------------------|------------------------------|


                                                                               
------------8---8---8---|------8---8---8-------8----||------8---8---8---------|
------------12--12--12--|------12--12--12------12---||------12--12--12--------|
------------------------|---------------------------||------------------------|
------------------------|---------------------------||------------------------|
------------------------|---------------------------||------------------------|
------------------------|---------------------------||------------------------|
------------------------|---------------------------||------------------------|


                                                                     
|---------------------|---------------------|-----------------------|
|----------0--0--0----|----0--0--0----------|----0--0--0------0--0--|
|----------5--5--5----|----5--5--5----------|----5--5--5------5--5--|
|---------------------|---------------------|-----------------------|
|---------------------|---------------------|-----------------------|
|---------------------|---------------------|-----------------------|
|---------------------|---------------------|-----------------------|


                                                                      
----------------------|---------------------|------------------------|
--0------0--0--0------|--------0--0--0------|--0--0--0------0--0--0--|
--5------5--5--5------|--------5--5--5------|--5--5--5------5--5--5--|
----------------------|---------------------|------------------------|
----------------------|---------------------|------------------------|
----------------------|---------------------|------------------------|
----------------------|---------------------|------------------------|


                                                                       
---------------------|----------------------||------8---8---8---------|
------------0--0--0--|------0--0--0---------||------12--12--12--------|
------------5--5--5--|------5--5--5---------||------------------------|
---------------------|----------------------||------------------------|
---------------------|----------------------||------------------------|
---------------------|----------------------||------------------------|
---------------------|----------------------||------------------------|


                                                                           
|------------------------|------------------------|-----------------------|
|------------------------|------------------------|-----------------------|
|------------------------|------------------------|-----------------------|
|------------------------|------------------------|-----------------------|
|--4--4--4----4--4-------|----4--4--4----4--4--4--|---------4--4--4----4--|
|--4--4--4----4--4-------|----4--4--4----4--4--4--|---------4--4--4----4--|
|--2--2--2----2--2----1b-|----2--2--2----2--2--2--|----1b---2--2--2----2--|


                                                                         
-----------------------|------------------------|-----------------------|
-----------------------|------------------------|-----------------------|
-----------------------|------------------------|-----------------------|
-----------------------|------------------------|-----------------------|
--4---------4--4--4----|--4--4--4---------4--4--|--4----4--4---------4--|
--4---------4--4--4----|--4--4--4---------4--4--|--4----4--4---------4--|
--2----1b---2--2--2----|--2--2--2----1b---2--2--|--2----2--2----1b---2--|


                                                                        
------------------------|-----------------------||---------------------|
------------------------|-----------------------||----------0--0--0----|
------------------------|-----------------------||----------5--5--5----|
------------------------|-----------------------||---------------------|
--4--4----4--4--4-------|----4--4--4------------||---------------------|
--4--4----4--4--4-------|----4--4--4------------||---------------------|
--2--2----2--2--2----1b-|----2--2--2----1b------||---------------------|


                                                                     
---------------------|-----------------------|----------------------|
----0--0--0----------|----0--0--0------0--0--|--0------0--0--0------|
----5--5--5----------|----5--5--5------5--5--|--5------5--5--5------|
---------------------|-----------------------|----------------------|
---------------------|-----------------------|----------------------|
---------------------|-----------------------|----------------------|
---------------------|-----------------------|----------------------|


                                                                     
---------------------|------------------------|---------------------|
--------0--0--0------|--0--0--0------0--0--0--|------------0--0--0--|
--------5--5--5------|--5--5--5------5--5--5--|------------5--5--5--|
---------------------|------------------------|---------------------|
---------------------|------------------------|---------------------|
---------------------|------------------------|---------------------|
---------------------|------------------------|---------------------|


                                                                        
----------------------||-----------------------|-----------------------|
------0--0--0---------||-----------------------|-----------------------|
------5--5--5---------||-----------------------|-----------------------|
----------------------||-----------------------|-----------------------|
----------------------||-----------------------|-----------------------|
----------------------||-------4----4-------4--|----4-------4-------4--|
----------------------||--2b---2----2--2b---2--|----2--2b---2--2b---2--|


                                                                       
----------------------|-----------------------|-----------------------|
----------------------|-----------------------|-----------------------|
----------------------|-----------------------|-----------------------|
----------------------|-----------------------|-----------------------|
----------------------|-----------------------|-----------------------|
----4-------4----4----|--4-------4----4-------|--4----4-------4-------|
----2--2b---2----2----|--2--2b---2----2--2b---|--2----2--2b---2--2b---|


                                                                        5x
-----------------------|-----------------------|------------------------||
-----------------------|-----------------------|------------------------||
-----------------------|-----------------------|------------------------||
-----------------------|-----------------------|------------------------||
-----------------------|-----------------------|------------------------||
--4----4-------4----4--|----4-------4----4-----|----4----4-------4--4---||
--2----2--2b---2----2--|----2--2b---2----2--2b-|----2----2--2b---2--2---||

Solo Guitar
D#||------|------|------|-------||------|------|------|-------||------|-------||
A#||------|------|------|-------||------|------|------|-------||------|-------||
F#||------|------|------|-------||------|------|------|-------||------|-------||
C#||------|------|------|-------||------|------|------|-------||------|-------||
G#||------|------|------|-------||------|------|------|-------||------|-------||
D#||------|------|------|-------||------|------|------|-------||------|-------||
A#||------|------|------|-------||------|------|------|-------||------|-------||


                            3x                            3x
------|------|------|-------||------|------|------|-------||
------|------|------|-------||------|------|------|-------||
------|------|------|-------||------|------|------|-------||
------|------|------|-------||------|------|------|-------||
------|------|------|-------||------|------|------|-------||
------|------|------|-------||------|------|------|-------||
------|------|------|-------||------|------|------|-------||


                                                                   
--21b-------------21b-|----------21b---21b---|--21b---------------|
----------------------|----------------------|--------------------|
----------------------|----------------------|--------------------|
----------------------|----------------------|--------------------|
----------------------|----------------------|--------------------|
----------------------|----------------------|--------------------|
----------------------|----------------------|--------------------|


                                                               
----21b-------------|------21b-----------|------------21b-----|
--------------------|--------------------|--------------------|
--------------------|--------------------|--------------------|
--------------------|--------------------|--------------------|
--------------------|--------------------|--------------------|
--------------------|--------------------|--------------------|
--------------------|--------------------|--------------------|


                                         
----------------21b-|-------------------|
--------------------|----------x--------|
--------------------|----------x--------|
--------------------|----------0--------|
--------------------|----------0--------|
--------------------|-------------------|
--------------------|-------------------|


                                         
-------------------------------------18t|
---------18t8----------18t8-------------|
--17t8h9------9-17t8h9------9-17t8h9----|
----------------------------------------|
----------------------------------------|
----------------------------------------|
----------------------------------------|


                                        
--8----------18t8----------18t8--------|
---------------------------------------|
----9-17t8h9------9-17t8h9------9-17t8h|
---------------------------------------|
---------------------------------------|
---------------------------------------|
---------------------------------------|


                                           
----18t8----------17t8--------------------|
----------------------------------17t9h10-|
--9------9-17t8h9------11-18t8h12---------|
------------------------------------------|
------------------------------------------|
------------------------------------------|
------------------------------------------|


                                                   
--------------------------------------------------|
--------------------19t13-------------20t13-------|
--18t11-------------------------------------------|
--------14-19t12h15-------16-20t13h16-------16-20t|
--------------------------------------------------|
--------------------------------------------------|
--------------------------------------------------|


                                                   
--------------------------------------------------|
--------20t13-20t13----------20t13h15----------20t|
--------------------------------------------------|
--13h16-------------20t13h16----------20t13h16----|
--------------------------------------------------|
--------------------------------------------------|
--------------------------------------------------|


                                                   
--------------------------------------------------|
--13-20t13----------20t13----------------------19t|
--------------------------------------------------|
-----------20t13h16-------16-20t13h16-19t13h15----|
--------------------------------------------------|
--------------------------------------------------|
--------------------------------------------------|


                                               
----------------------------------------------|
--12------------------------------------------|
-----16-19t11h13/-19t12-19t10h11/-19t11-19t10h|
----------------------------------------------|
----------------------------------------------|
----------------------------------------------|
----------------------------------------------|


                                                                            
-----------------------------------||-------------------|------------------|
-----12----------------12-x--------||--5----------------|------------------|
--11----19t11-19t10h11----x--------||-------------------|------------------|
--------------------------0--------||-------------------|------------------|
--------------------------0--------||-------------------|------------------|
-----------------------------------||-------------------|------------------|
-----------------------------------||-------------------|------------------|


                                                                              
-------------------|------------------|-------------------|------------------|
-------------------|------------------|--6----------------|------------------|
--6----------------|------------------|-------------------|------------------|
-------------------|------------------|-------------------|------------------|
-------------------|------------------|-------------------|------------------|
-------------------|------------------|-------------------|------------------|
-------------------|------------------|-------------------|------------------|


                                                                            
-------------------|-------------------||------|------|------|------|------|
-------------------|-------------------||------|------|------|------|------|
--6----------------|-------------------||------|------|------|------|------|
-------------------|-------------------||------|------|------|------|------|
-------------------|-------------------||------|------|------|------|------|
-------------------|-------------------||------|------|------|------|------|
-------------------|-------------------||------|------|------|------|------|


                                                                                
------|------|-------||------||------|------|------|------|------|------|------|
------|------|-------||------||------|------|------|------|------|------|------|
------|------|-------||------||------|------|------|------|------|------|------|
------|------|-------||------||------|------|------|------|------|------|------|
------|------|-------||------||------|------|------|------|------|------|------|
------|------|-------||------||------|------|------|------|------|------|------|
------|------|-------||------||------|------|------|------|------|------|------|


                                                                           
-------||------||------|------|------|------|------|------|------|-------||
-------||------||------|------|------|------|------|------|------|-------||
-------||------||------|------|------|------|------|------|------|-------||
-------||------||------|------|------|------|------|------|------|-------||
-------||------||------|------|------|------|------|------|------|-------||
-------||------||------|------|------|------|------|------|------|-------||
-------||------||------|------|------|------|------|------|------|-------||


                                                                              
------|------|------|------|------|------|------|-------||-------------------|
------|------|------|------|------|------|------|-------||--5----------------|
------|------|------|------|------|------|------|-------||-------------------|
------|------|------|------|------|------|------|-------||-------------------|
------|------|------|------|------|------|------|-------||-------------------|
------|------|------|------|------|------|------|-------||-------------------|
------|------|------|------|------|------|------|-------||-------------------|


                                                                              
------------------|-------------------|------------------|-------------------|
------------------|-------------------|------------------|--6----------------|
------------------|--6----------------|------------------|-------------------|
------------------|-------------------|------------------|-------------------|
------------------|-------------------|------------------|-------------------|
------------------|-------------------|------------------|-------------------|
------------------|-------------------|------------------|-------------------|


                                                          5x
------------------|-------------------|-------------------||
------------------|-------------------|-------------------||
------------------|--6----------------|-------------------||
------------------|-------------------|-------------------||
------------------|-------------------|-------------------||
------------------|-------------------|-------------------||
Suggest correction
Creating personal tab
Creating personal tab
You can edit any tab online and save it as your Personal.

You can edit, replace or remove any tab part or add personal notes – all changes will be seen only by you.

Personal tabs can be accessed anytime from any device, even offline.
Learn more »
Give kudos to tab author, rate the tab!
1 2 3 4 5
comments
print report bad tab
guest
You may want to rate the tab now too:
select rating
Wanna post a correction for this tab? Suggest correction