Oops, an error
Loading. Please wait.

Soul Burn tab

version 2
version 2

Whole song

Interactive

1,802 views 1 this week
3 commentsread comments
1 2 3 4 5
x 3
add to favorites
×
Save as Personal and add changes to this tab that will be seen only by you. Learn more ›
×
You can save this tab as Personal to edit and correct it or add notes. All changes will be seen only by you. Learn more »
launch autoscroll
font size
0
reset
how to read this tab
guitar tuner
backing track
0:00
0:00
edit
Autoscroll
slow
fast
+/-
esc
set tempo
stop
-----------------------------------------------------------------------------------------------
Artist - Meshuggah
Song   - Soul Burn
Album  - Destroy Erase Improve
Tabbed - Jakob Jugovic
-----------------------------------------------------------------------------------------------


p - pull
h - hammer on
t - right hand tapping
/ - slide upwards
\ - slide downwards
X - ghost note
~ - vibrato
o - 1/4 (timescale)
^ - bend
pm- palm mute




  INTRO:

  [riff 1]

    o . . . o . . . o . . . o . . . o . . . o . . . o . . . o . . . 
D#|-----------------------------------------------------------------|
A#|-----------------------------------------------------------------|
F#|-----------------------------------------------------------------|
C#|-----------------------------------------------------------------|
G#|-0---0-----------0---0----------00---0-----------0---0---3---7---|
C#|-0---0-----------0---0----------00---0-----------0---0---3---7---|
pm  .   .           .   .          ..   .           .   .   .   .


    o . . . o . . . o . . . o . . . o . . . o . . . o . . . o . . . 
D#|-----------------------------------------------------------------|
A#|-----------------------------------------------------------------|
F#|-----------------------------------------------------------------|
C#|-----------------------------------------------------------------|
G#|-6---0-----------0---0-----------0---0-----------0---0---3---7---|
C#|-6---0-----------0---0-----------0---0-----------0---0---3---7---|
pm  .   .           .   .           .   .           .   .   .   .


    o . . . o . . . o . . . o . . . o . . . o . . . o . . . o . . . 
D#|-----------------------------------------------------------------|
A#|-----------------------------------------------------------------|
F#|-----------------------------------------------------------------|
C#|-----------------------------------------------------------------|
G#|-1---0-----------0---0-----------0---0-----------0---0---3---7---|
C#|-1---0-----------0---0-----------0---0-----------0---0---3---7---|
pm  .   .           .   .           .   .           .   .   .   .


    o . . . o . . . o . . . o . . . o . . . o . . . o . . . o . . . 
D#|-----------------------------------------------------------------|
A#|-----------------------------------------------------------------|
F#|-----------------------------------------------------------------|
C#|-----------------------------------------------------------------|
G#|-6---0-----------0---0-----------0---0-----------0---0---3---7---|
C#|-6---0-----------0---0-----------0---0-----------0---0---3---7---|
pm  .   .           .   .           .   .           .   .   .   .


  [riff 2]:

    o . . . o . . . o . . . o . . . o . . . o . . . o . . . o . . .    _
D#|-----------------------------------------------------------------|   |
A#|-----------------------------------------------------------------|   |
F#|--------/10-------------/8---------------4-----------------------|   |
C#|--------/8--------------/6---------------4-----------------------|   |
G#|-1---0--/8-------0---0--/6-------0---0---2-------0---0---3---7---|   |
C#|-1---0-----------0---0--/6-------0---0-----------0---0---3---7---|   |
pm  .   .           .   .           .   .           .   .   .   .       |
                                                                        |  x2
                                                                        |
    o . . . o . . . o . . . o . . . o . . . o . . . o . . . o . . .     |
D#|-----------------------------------------------------------------|   |
A#|-----------------------------------------------------------------|   |
F#|--------/10--------------4---------------5-----------------------|   |
C#|--------/8---------------4---------------5-----------------------|   |
G#|-6---0--/8-------0---0---2-------0---0---3-------0---0---3---7---|   |
C#|-6---0-----------0---0-----------0---0-----------0---0---3---7---|  _|
pm  .   .           .   .           .   .           .   .   .   .



  VERSE:

  [guitar 1]  

    o . o . o . o . o . o . o . o . o . o . o . o . o .
D#|-----------------------------------------------------|
A#|-----------------------------------------------------|
F#|-----------------------2-------------------------2---|  x6
C#|-----------------------2-------------------------2---|
G#|-2-2---2-2---2-2---2-2-0---2-2---2-2---2-2---2-2-0---|
C#|-2-2---2-2---2-2---2-2-----2-2---2-2---2-2---2-2-----|
pm  . .   . .   . .   . .     . .   . .   . .   . .


    o . o . o . o . o . o . o . o . o . o . o . o . o .
D#|-----------------------------------------------------|
A#|-----------------------------------------------------|
F#|-----------------------------------------------------|
C#|-----------------------6-------------------------6---|  x2
G#|-0-0---0-0---0-0---0-0-6---0-0---0-0---0-0---0-0-6---|
C#|-0-0---0-0---0-0---0-0-6---0-0---0-0---0-0---0-0-6---|
pm  . .   . .   . .   . .     . .   . .   . .   . .


  [solo guitar]

    o . o . o . o . o . o . o . o . o . o . o . o . o .
D#|-----------------------------------------------------|
A#|-----------------------------------------------------|
F#|-7/8-7-------------8\7-5-----------6-/-11--6---------|
C#|-x---x-------------x---x-----------x-------x---------|
G#|-5/6-5-------------6\5-3-----------4-/-9---4---------|
C#|-----------------------------------------------------|


    o . o . o . o . o . o . o . o . o . o . o . o . o .
D#|-----------------------------------------------------|
A#|-----------------------------------------------------|
F#|---10--1310--11----17--13------17--14------17--------|
C#|---x---x-x---x-----x---x-------x---x-------x---------|
G#|---8---118---9-----15--11------15--12------15--------|
C#|-----------------------------------------------------|


  [guitar 1 and 2]

    o . o . o . o . o . o . o . o . o . o . o . o . o .
D#|-----------------------------------------------------|
A#|-----------------------------------------------------|
F#|-----------------------2-------------------------2---|  x3
C#|-----------------------2-------------------------2---|
G#|-2-2-2-2-2-2-2-2-2-2-2-0---2-2-2-2-2-2-2-2-2-2-2-0---|
C#|-2-2-2-2-2-2-2-2-2-2-2-----2-2-2-2-2-2-2-2-2-2-2-----|
pm  . . . . . . . . . . .     . . . . . . . . . . . .


    o . o . o . o . o . o . o . o . o . o . o .
D#|---------------------------------------------|
A#|---------------------------------------------|
F#|-----------------------2---------------------|
C#|-----------------------2---------------------|
G#|-2-2-2-2-2-2-2-2-2-2-2-0---2-2-2-2-2-2-2-2-2-|
C#|-2-2-2-2-2-2-2-2-2-2-2-----2-2-2-2-2-2-2-2-2-|
pm  . . . . . . . . . . .     . . . . . . . . .


    o . o . o . o . 
D#|-----------------|
A#|-8--8--8--8------|
F#|-7--7--7--7------|
C#|-5--5--5--5------|
G#|-5--5--5--5------|
C#|-5--5--5--5------|
pm  .  .  .  .



  'INTRO':

  [riff 1]

    o . . . o . . . o . . . o . . .
D#|---------------------------------|
A#|---------------------------------|
F#|---------------------------------|
C#|---------------------------------|
G#|-0---0-----------0---0-----------|
C#|-0---0-----------0---0-----------|
pm  .   .           .   .


    o . . . o . . . o . . . o . . . o . . . o . . . o . . . o . . . 
D#|-----------------------------------------------------------------|
A#|-----------------------------------------------------------------|
F#|-----------------------------------------------------------------|
C#|-----------------------------------------------------------------|
G#|-0---0-----------0---0-----------0---0-----------0---0---3---7---|
C#|-0---0-----------0---0-----------0---0-----------0---0---3---7---|
pm  .   .           .   .           .   .           .   .   .   .


    o . . . o . . . o . . . o . . . o . . . o . . . o . . . o . . . 
D#|-----------------------------------------------------------------|
A#|-----------------------------------------------------------------|
F#|-----------------------------------------------------------------|
C#|-----------------------------------------------------------------|
G#|-6---0-----------0---0-----------0---0-----------0---0---3---7---|
C#|-6---0-----------0---0-----------0---0-----------0---0---3---7---|
pm  .   .           .   .           .   .           .   .   .   .


  [riff 2]:

    o . . . o . . . o . . . o . . . o . . . o . . . o . . . o . . .
D#|-----------------------------------------------------------------|
A#|-----------------------------------------------------------------|
F#|--------/10-------------/8---------------4-----------------------|
C#|--------/8--------------/6---------------4-----------------------|
G#|-1---0--/8-------0---0--/6-------0---0---2-------0---0---3---7---|
C#|-1---0-----------0---0--/6-------0---0-----------0---0---3---7---|
pm  .   .           .   .           .   .           .   .   .   .


    o . . . o . . . o . . . o . . . o . . . o . . . o . . . o . . . .
D#|-------------------------------------------------------------------|
A#|-------------------------------------------------------------------|
F#|--------/10--------------4---------------5-----------------------8-|
C#|--------/8---------------4---------------5-----------------------8-|
G#|-6---0--/8-------0---0---2-------0---0---3-------0---0---3---7---6-|
C#|-6---0-----------0---0-----------0---0-----------0---0---3---7-----|
pm  .   .           .   .           .   .           .   .   .   .


  BRIDGE 1:

    o   .   o   .   o   .   o   .   o   .   o   .   o   .   o   .
D#|-----------------------------------------------------------------|
A#|-----------------------------------------------------------------|
F#|---------------------------------------------------------8\7-----|  x4
C#|---------------------------------------------------------6\5-----|
G#|-1-----1---1---1-----1-----1-----1---1-----1---1---1-----6\5-----|
C#|-1-----1---1---1-----1-----1-----1---1-----1---1---1-----6\5-----|
pm  .     .   .   .     .     .     .   .     .   .   .


    o   .   o   .   o   .   o   .   o   .   o   .   o   .   o   .
D#|-----------------------------------------------------------------|
A#|-----------------------------------------------------------------|
F#|---------------------------------------------------------8\7-----|  x4
C#|---------------------------------------------------------6\5-----|
G#|-0---x-0---0---0---x-0---x-0---x-0---0---x-0---0---0---x-6\5-----|
C#|-0---x-0---0---0---x-0---x-0---x-0---0---x-0---0---0---x-6\5-----|
pm  .   . .   .   .   . .   . .   . .   .   . .   .   .   .


    o   .   o   .   o   .   o   .   o   .   o   .   o   .   o   .
D#|-----------------------------------------------------------------|
A#|-----------------------------------------------------------------|
F#|---------------------------------2---2-----2---2---2-----2-------|
C#|-------------------------------x-2---2---x-2---2---2---x-2-------|
G#|-2---x-2---2---2---x-2---x-2---x-0---0---x-0---0---0---x-0-------|
C#|-2---x-2---2---2---x-2---x-2-------------------------------------|
pm  .   . .   .   .   . .   . .   . .   .   . .   .   .   .


    o   .   o   .   o   .   o   .   o   .   o   .   o   .   o   .
D#|-----------------------------------------------------------------|
A#|-----------------------------------------------------------------|
F#|---------------------------------------------------------8\7-----|
C#|---------------------------------------------------------6\5-----|
G#|-2---x-2---2---2---x-2---x-2---x-4---4---x-4---4---4---x-6\5-----|
C#|-2---x-2---2---2---x-2---x-2---x-4---4---x-4---4---4---x-6\5-----|
pm  .   . .   .   .   . .   . .   . .   .   . .   .   .   .


    o   .   o   .   o   .   o   .   o   .   o   .   o   .   o   .
D#|-----------------------------------------------------------------|
A#|-----------------------------------------------------------------|
F#|---------------------------------------------------------8\7-----|
C#|---------------------------------------------------------6\5-----|
G#|-4---x-4---4---4---x-5---x-5---x-7---7---x-7---7---7---x-6\5-----|
C#|-4---x-4---4---4---x-5---x-5---x-7---7---x-7---7---7---x-6\5-----|
pm  .   . .   .   .   . .   . .   . .   .   . .   .   .   .


    o   .   o   .   o   .   o   .   o   .   o   .   o   .   
D#|---------------------------------------------------------|
A#|---------------------------------------------------------|
F#|---------------------------------------------------------|
C#|---------------------------------------------------------|
G#|-4---x-4---4---4---x-5---x-5---x-9---9---x-9---9---9-----|
C#|-4---x-4---4---4---x-5---x-5---x-9---9---x-9---9---9-----|
pm  .   . .   .   .   . .   . .   . .   .   . .   .   .


    o . o . o . o .
D#|-----------------|
A#|-----------------|
F#|-----------------|
C#|-9--9--9---------|
G#|-9--9--9---------|
C#|-9--9--9---------|
pm  .  .  .


  SOLO:

  [the first part and the last part is a mystery...]


D#|-----------------------------------------------------------------|
A#|-----------------------------------------------------------------|
F#|-----------------------------------------------------------------|
C#|-----------------------------------------------------------------|
G#|-----------------------------------------------------------------|
C#|-----------------------------------------------------------------|

  
D#|-/22----20-----|-11----------------------------------------------|
A#|-----21----19--|----13---------------(13)h14----11---13---14-----|
F#|---------------|-------------------------------------------------|
C#|---------------|-------------------------------------------------|
G#|---------------|-------------------------------------------------|
C#|---------------|-------------------------------------------------|

 
D#|-----------------------------------------------------------------|
A#|-11-13-----14--11----13--14-------------13--11-------------11----|
F#|------------------------------12--11--------------11--12---------|
C#|-----------------------------------------------------------------|
G#|-----------------------------------------------------------------|
C#|-----------------------------------------------------------------|


D#|-12---------------11--(12)----11----11-12-14---12-14-15---14-15--|
A#|----11---14---13-------------------------------------------------|
F#|-----------------------------------------------------------------|
C#|-----------------------------------------------------------------|
G#|-----------------------------------------------------------------|
C#|-----------------------------------------------------------------|


D#|-17---18--17p15---20--18p17---21--20p18---23--21p20------21p20---|
A#|-----------------------------------------------------23----------|
F#|-----------------------------------------------------------------|
C#|-----------------------------------------------------------------|
G#|-----------------------------------------------------------------|
C#|-----------------------------------------------------------------|


D#|----------------------------20-----------------------------------|
A#|-23p22h23p22-20-22p20-----------------22--20\19--23-20-----------|
F#|----------------------23p21-----23p21----------------------------|
C#|-----------------------------------------------------------------|
G#|-----------------------------------------------------------------|
C#|-----------------------------------------------------------------|


D#|-----------------------------------------------------------------|
A#|-19--------------------------------------------------------------|
F#|----21-20-21-20--------------------------------------------------|
C#|----------------23-22-20-22-20-----------------------------------|
G#|-------------------------------21---------16h17h19t21p19p17p16---|
C#|-----------------------------------------------------------------|


D#|-----------------------------------------------------------------|
A#|-----------------------------------------------------------------|
F#|-----------------------------------------------------------------|
C#|-----------------------14h15h17t19p17p15p14-16h17h19t20p19p17p16-|
G#|-16h17h19t21p19p17p16--------------------------------------------|
C#|-----------------------------------------------------------------|


D#|-----------------------------------------------------------------|
A#|-----------------------------------------------------------------|
F#|-----------------------------------------------------------------|
C#|-16h17h19t20p19p17p16h17p19t20-----------------------------------|
G#|-----------------------------------------------------------------|
C#|-----------------------------------------------------------------|


D#|-18~-------------------------------------------------------------|
A#|-----------------------------------------------------------------|
F#|-----------------------------------------------------------------|
C#|-----------------------------------------------------------------|
G#|-----------------------------------------------------------------|
C#|-----------------------------------------------------------------|


D#|-----------------------------------------------------------------|
A#|-----------------------------------------------------------------|
F#|-----------------------------------------------------------------|
C#|-----------------------------------------------------------------|
G#|-----------------------------------------------------------------|
C#|-----------------------------------------------------------------|


  BRIDGE 2:

  [stopped chords]

    o . . . o . . . o . . . o . . . o . . . o . . . o . . . o . . .   
D#|-----------------------------------------------------------------|
A#|-----------------------------------------------------------------|
F#|-----2------5---2---------2------5------2------5--2---2-----5----|  x4
C#|-4---2---1--5---2------4--2---1--5--44-42---1--5--2---2--4--5----|
G#|-4---0---1--3---0------4--0---1--3--44-40---1--3--0---0--4--3----|
C#|-4-------1-------------4------1-----44-4----1------------4-------|
pm                                     .  .


  [open chords]

    o . . . o . . . o . . . o . . . o . . . o . . . o . . . o . . .   
D#|-----------------------------------------------------------------|
A#|-----------------------------------------------------------------|
F#|-----2------5---2---------2------5------2------5--2---2-----5----|  x2
C#|-4---2---1--5---2------4--2---1--5--44-42---1--5--2---2--4--5----|
G#|-4---0---1--3---0------4--0---1--3--44-40---1--3--0---0--4--3----|
C#|-4-------1-------------4------1-----44-4----1------------4-------|



  'INTRO':

  [riff 1]

    o . . . o . . . o . . . o . . . o . . . o . . . o . . . o . . . 
D#|-----------------------------------------------------------------|
A#|-----------------------------------------------------------------|
F#|-----------------------------------------------------------------|
C#|-----------------------------------------------------------------|
G#|-0---0-----------0---0-----------0---0-----------0---0---3---7---|
C#|-0---0-----------0---0-----------0---0-----------0---0---3---7---|
pm  .   .           .   .           .   .           .   .   .   .


    o . . . o . . . o . . . o . . . o . . . o . . . o . . . o . . . 
D#|-----------------------------------------------------------------|
A#|-----------------------------------------------------------------|
F#|-----------------------------------------------------------------|
C#|-----------------------------------------------------------------|
G#|-6---0-----------0---0-----------0---0-----------0---0---3---7---|
C#|-6---0-----------0---0-----------0---0-----------0---0---3---7---|
pm  .   .           .   .           .   .           .   .   .   .


  [riff 2]:

    o . . . o . . . o . . . o . . . o . . . o . . . o . . . o . . .
D#|-----------------------------------------------------------------|
A#|-----------------------------------------------------------------|
F#|--------/10-------------/8---------------4-----------------------|
C#|--------/8--------------/6---------------4-----------------------|
G#|-1---0--/8-------0---0--/6-------0---0---2-------0---0---3---7---|
C#|-1---0-----------0---0--/6-------0---0-----------0---0---3---7---|
pm  .   .           .   .           .   .           .   .   .   .


    o . . . o . . . o . . . o . . . o . . . o . . . o . . . o . . .
D#|-----------------------------------------------------------------|
A#|-----------------------------------------------------------------|
F#|--------/10--------------4---------------5-----------------------|
C#|--------/8---------------4---------------5-----------------------|
G#|-6---0--/8-------0---0---2-------0---0---3-------0---0---3---7---|
C#|-6---0-----------0---0-----------0---0-----------0---0---3---7---|
pm  .   .           .   .           .   .           .   .   .   .


    o . . . o . . . o . . . o . . . o . . . o . . . o . . . o . . .
D#|-------------------------------------------------------------------|
A#|-8-----------------------------------------------------------------|
F#|-7-------------------------------------------------------10101010--|
C#|-5-------------------------------------------------------8-8-8-8--5|
G#|-5-------------------------------------------------------8-8-8-8--5|
C#|-5----------------------------------------------------------------5|


  BRIDGE 3:

    o . . o . . o . . o . . o . . o . . o . . o . . 
D#|-------------------------------------------------|
A#|-------------------------------------------------|
F#|-------------------10----------------------------|
C#|-5---5-5---5-5-5-5-8---------------------------5-|
G#|-5---5-5---5-5-5-5-8---------------------------5-|
C#|-5---5-5---5-5-5-5-----------------------------5-|
pm  .   . .   . . . .                             .


    o . . o . . o . . o . . o . . o . . o . . o . . 
D#|-------------------------------------------------|
A#|-------------------------------------------------|
F#|-------------------8-----------------------------|
C#|-5---5-5---5-5-5-5-6---------------------------5-|
G#|-5---5-5---5-5-5-5-6---------------------------5-|
C#|-5---5-5---5-5-5-5-6---------------------------5-|
pm  .   . .   . . . .                             .


    o . . o . . o . . o . . o . . o . . o . . o . . 
D#|-------------------------------------------------|
A#|-------------------------------------------------|
F#|-------------------10----------------------------|
C#|-5---5-5---5-5-5-5-8---------------------------5-|
G#|-5---5-5---5-5-5-5-8---------------------------5-|
C#|-5---5-5---5-5-5-5-----------------------------5-|
pm  .   . .   . . . .                             .


    o . . o . . o . . o . . o . . o . . o . . o . . 
D#|-------------------------------------------------|
A#|-------------------------------------------------|
F#|-------------------6-----------------------------|
C#|-5---5-5---5-5-5-5-4---------------------------5-|
G#|-5---5-5---5-5-5-5-4---------------------------5-|
C#|-5---5-5---5-5-5-5-4---------------------------5-|
pm  .   . .   . . . .                             .


    o . . o . . o . . o . . o . . o . . o . . o . . 
D#|-------------------------------------------------|
A#|-------------------------------------------------|
F#|-------------------------------------------------|  x3
C#|-5---5-5---5-5-5-5-5---5-5---5-5---5-5-5-5-5---5-|
G#|-5---5-5---5-5-5-5-5---5-5---5-5---5-5-5-5-5---5-|
C#|-5---5-5---5-5-5-5-5---5-5---5-5---5-5-5-5-5---5-|
pm  .   . .   . . . .     . .   . .   . . . . .   .


    o . . o . . o . . o . . o . . o . . o . . o .
D#|-----------------------------------------------|
A#|-----------------------------------------------|
F#|-----------------------------------------------|
C#|-5---5-5---5-5-5-5-5---5-5---5-5---5-5-5-5-5---|
G#|-5---5-5---5-5-5-5-5---5-5---5-5---5-5-5-5-5---|
C#|-5---5-5---5-5-5-5-5---5-5---5-5---5-5-5-5-5---|
pm  .   . .   . . . .     . .   . .   . . . . .


  BRIDGE 4:


    o . . . o . . . o . . . o . . . o . . . 
D#|-----------------------------------------|
A#|-----------------------------------------|
F#|-----------------------------------------|  x2
C#|-2---2-----2---2-----2---2-----2---2-----|
G#|-2---2-----2---2-----2---2-----2---2-----|
C#|-2---2-----2---2-----2---2-----2---2-----|
pm  .   .     .   .     .   .     .   .


    o . . . o . . . o . . . o . . . o . . . 
D#|-----------------------------------------|
A#|-----------------------------------------|
F#|-----------------------------------------|  x2
C#|-3---3-----3---3-----3---3-----3---3-----|
G#|-3---3-----3---3-----3---3-----3---3-----|
C#|-3---3-----3---3-----3---3-----3---3-----|
pm  .   .     .   .     .   .     .   .


    o . . . o . . . o . . .
D#|-------------------------|
A#|-------------------------|
F#|-------------------------|
C#|-3-------3-------3-------|
G#|-3-------3-------3-------|
C#|-3-------3-------3-------|


    o . . . o . . . o . . . o . . . o . . . 
D#|-----------------------------------------|
A#|-----------------------------------------|
F#|-----------------------------------------|  x3
C#|-2---2-----2---2-----2---3-----3---3-----|
G#|-2---2-----2---2-----2---3-----3---3-----|
C#|-2---2-----2---2-----2---3-----3---3-----|
pm  .   .     .   .     .   .     .   .


    o . . . o . . . o . . . o . . . o . . . 
D#|-----------------------------------------|---|
A#|-----------------------------------------|---|
F#|-----------------------------------------|-8-|
C#|-3---3-----3---3-----3---3-----3---3-----|-6-|
G#|-3---3-----3---3-----3---3-----3---3-----|-6-|
C#|-3---3-----3---3-----3---3-----3---3-----|-6-|
pm  .   .     .   .     .   .     .   .


  ENDING:

    o   .   o   .   o   .   o   .   o   .   o   .   o   .   o   .
D#|-----------------------------------------------------------------|
A#|-----------------------------------------------------------------|
F#|---------------------------------------------------------8\7-----|  x4
C#|---------------------------------------------------------6\5-----|
G#|-0---x-0---0---0---x-0---x-0---x-0---0---x-0---0---0---x-6\5-----|
C#|-0---x-0---0---0---x-0---x-0---x-0---0---x-0---0---0---x-6\5-----|
pm  .   . .   .   .   . .   . .   . .   .   . .   .   .   .


    o   .   o   .   o   .   o   .   o   .   o   .   o   .   o   .
D#|-----------------------------------------------------------------|
A#|-----------------------------------------------------------------|
F#|---------------------------------------------------------8\7-----|  x4
C#|---------------------------------------------------------6\5-----|
G#|-1---x-1---1---1---x-1---x-1---x-1---1---x-1---1---1---x-6\5-----|
C#|-1---x-1---1---1---x-1---x-1---x-1---1---x-1---1---1---x-6\5-----|
pm  .   . .   .   .   . .   . .   . .   .   . .   .   .   .


    o   .   o   .   o   .   o   .   o   .   o   .   o   .   o   .
D#|----------------------------------------------------------------------|
A#|----------------------------------------------------------------------|
F#|----------------------------------------------------------------------|
C#|----------------------------------------------------------------------|
G#|-1---x-1---1---1---x-1---x-1---x-1---1---1-1---1---1---1---0---0---0--|
C#|-1---x-1---1---1---x-1---x-1---x-1---1---1-1---1---1---1---0---0---0--|
pm  .   . .   .   .   . .   . .   . .   .   . .   .   .   .   .   .   .



  

            
            
Suggest correction
Creating personal tab
Creating personal tab
You can edit any tab online and save it as your Personal.

You can edit, replace or remove any tab part or add personal notes – all changes will be seen only by you.

Personal tabs can be accessed anytime from any device, even offline.
Learn more »
Give kudos to tab author, rate the tab!
1 2 3 4 5
comments
print report bad tab
3 comments total.
0 reply
skull_king 110 Jul 13, 2014 08:37 PM

Lack of accuracy.

guest
You may want to rate the tab now too:
select rating
Wanna post a correction for this tab? Suggest correction