Oops, an error
Loading. Please wait.

The Exquisite Machinery Of Torture bass

version 1
version 1

Whole song

Interactive

875 views 1 this week
no commentswrite comment
1 2 3 4 5
3 more votes to show rating
add to favorites
×
Save as Personal and add changes to this tab that will be seen only by you. Learn more ›
×
You can save this tab as Personal to edit and correct it or add notes. All changes will be seen only by you. Learn more »
launch autoscroll
font size
0
reset
guitar tuner
edit
Autoscroll
slow
fast
+/-
esc
set tempo
stop
5 string n tune down

F#||------------------||-------------------------------|
C#||------------------||*------------------------------|
G#||------------------||-------------------------------|
D#||------------------||*------------------------------|
A#||------------------||---1------1--------1----1------|


                                                              
------------------------------|------------------------------|
------------------------------|------------------------------|
------------------------------|------------------------------|
------------------------------|------------------------------|
--1--------1----1------1------|----1----1------1--------1----|


                               2x                               
-------------------------------||------------------------------|
------------------------------*||------------------------------|
-------------------------------||------------------------------|
------------------------------*||------------------------------|
--1------1--------1----1-------||--1------1--------1----1------|


                                                              
------------------------------|------------------------------|
------------------------------|------------------------------|
------------------------------|------------------------------|
------------------------------|------------------------------|
--1--------1----1------1------|----1----1------1--------1----|


                                                                  
------------------------------||---------------------------------|
------------------------------||*--------------------------------|
------------------------------||---------------------------------|
------------------------------||*--------------------------------|
--1------1--------1----1------||---1------1--1------1------1--1--|


                                                                
------------------------------|--------------------------------|
------------------------------|--------------------------------|
------------------------------|--------------------------------|
------------------------------|--------------------------------|
------1------1--1------1------|--1--1------1------1--1------1--|


                                                                
-------------------------------|-------------------------------|
-------------------------------|-------------------------------|
-------------------------------|-------------------------------|
-------------------------------|-------------------------------|
------1--1------1------1--1----|----1------1--1------1------1--|


                                                                
-------------------------------|-------------------------------|
-------------------------------|-------------------------------|
-------------------------------|-------------------------------|
-------------------------------|-------------------------------|
--1------1------1--1------1----|----1--1------1------1--1------|


                                                                       
---------------------------------||-----------------------------------|
--------------------------------*||-----------------------------------|
---------------------------------||-----------------------------------|
--------------------------------*||-----------------------------------|
--1------1--1------1------1--1---||--5----2--3--4--5----5----2--3--4--|


                                                                       
----------------------------------|-----------------------------------|
----------------------------------|-----------------------------------|
----------------------------------|-----------------------------------|
----------------------------------|-----------------------------------|
--5----5----2--3--4--5----5----2--|--3--4--5----5----2--3--4--5----5--|


                                                                       
-----------------------------------|----------------------------------|
-----------------------------------|----------------------------------|
-----------------------------------|----------------------------------|
-----------------------------------|----------------------------------|
----2--3--4--5----5----2--3--4--5--|----5----2--3--4--5----5----2--3--|


                                                                       
----------------------------------|-----------------------------------|
----------------------------------|-----------------------------------|
----------------------------------|-----------------------------------|
----------------------------------|-----------------------------------|
--4--5----5----2--3--4--5----5----|--2--3--4--5----5----2--3--4--5----|


                                                                   
-----------------------------------|------------------------------|
-----------------------------------|------------------------------|
-----------------------------------|------------------------------|
-----------------------------------|------------------------------|
--5----2--3--4--5----5----2--3--4--|--1------1--1------1----------|


                                                                  
|---------------------------------|------------------------------|
|*--------------------------------|------------------------------|
|---------------------------------|------------------------------|
|*--------------------------------|------------------------------|
|---1------1--1------1------1--1--|------1------1--1------1------|


                                                                 
--------------------------------|-------------------------------|
--------------------------------|-------------------------------|
--------------------------------|-------------------------------|
--------------------------------|-------------------------------|
--1--1------1------1--1------1--|------1--1------1------1--1----|


                                                                
-------------------------------|-------------------------------|
-------------------------------|-------------------------------|
-------------------------------|-------------------------------|
-------------------------------|-------------------------------|
----1------1--1------1------1--|--1------1------1--1------1----|


                                                                   
-------------------------------|---------------------------------||
-------------------------------|--------------------------------*||
-------------------------------|---------------------------------||
-------------------------------|--------------------------------*||
----1--1------1------1--1------|--1------1--1------1------1--1---||


                                                                        
------------------------------------|----------------------------------|
*-----------------------------------|----------------------------------|
------------------------------------|----------------------------------|
*-----------------------------------|----------------------------------|
---5----2--3--4--5----5----2--3--4--|--5----5----2--3--4--5----5----2--|


                                                                          
-----------------------------------|------------------------------------||
-----------------------------------|-----------------------------------*||
-----------------------------------|------------------------------------||
-----------------------------------|-----------------------------------*||
--3--4--5----5----2--3--4--5----5--|----2--3--4--5----5----2--3--4--5---||


                                                                    
----------------------------------|--------------------------------|
*---------------------------------|--------------------------------|
----------------------------------|--------------------------------|
*---------------------------------|--------------------------------|
---1------0--0--0----1----0----1--|----0----1----0--0----1----0----|


                                                                    3x
---------------------------------|----------------------------------||
---------------------------------|---------------------------------*||
---------------------------------|----------------------------------||
---------------------------------|---------------------------------*||
--1------0--0--0----1----0----1--|----0----0--1----0----1----0--0---||


                                                                  
---------------------------------|-------------------------------|
*--------------------------------|-------------------------------|
---------------------------------|-------------------------------|
*--------------------------------|-------------------------------|
---2b-----2--2--2------2------2b-|------2--2--2------2------2b---|


                                                                 3x
-------------------------------|---------------------------------||
-------------------------------|--------------------------------*||
-------------------------------|---------------------------------||
-------------------------------|--------------------------------*||
----2--2--2------2------2b-----|--2--2--2------2------2b-----2---||


                                                               
--------------------------------|-----------------------------|
--------------------------------|-----------------------------|
--------------------------------|-----------------------------|
--------------------------------|-----------------------------|
--1------1--1------1------1--1--|------1------1--1------------|


                                                                  
|---------------------------------|------------------------------|
|*--------------------------------|------------------------------|
|---------------------------------|------------------------------|
|*--------------------------------|------------------------------|
|---1------1--1------1------1--1--|------1------1--1------1------|


                                                                 
--------------------------------|-------------------------------|
--------------------------------|-------------------------------|
--------------------------------|-------------------------------|
--------------------------------|-------------------------------|
--1--1------1------1--1------1--|------1--1------1------1--1----|


                                                                
-------------------------------|-------------------------------|
-------------------------------|-------------------------------|
-------------------------------|-------------------------------|
-------------------------------|-------------------------------|
----1------1--1------1------1--|--1------1------1--1------1----|


                                                                   
-------------------------------|---------------------------------||
-------------------------------|--------------------------------*||
-------------------------------|---------------------------------||
-------------------------------|--------------------------------*||
----1--1------1------1--1------|--1------1--1------1------1--1---||


                                                                        
------------------------------------|----------------------------------|
*-----------------------------------|----------------------------------|
------------------------------------|----------------------------------|
*-----------------------------------|----------------------------------|
---5----2--3--4--5----5----2--3--4--|--5----5----2--3--4--5----5----2--|


                                                                          
-----------------------------------|------------------------------------||
-----------------------------------|-----------------------------------*||
-----------------------------------|------------------------------------||
-----------------------------------|-----------------------------------*||
--3--4--5----5----2--3--4--5----5--|----2--3--4--5----5----2--3--4--5---||


                                                                       
-----------------------------------|----------------------------------|
-----------------------------------|----------------------------------|
-----------------------------------|----------------------------------|
-----------------------------------|----------------------------------|
--5----2--3--4--5----5----2--3--4--|--5----5----2--3--4--5----5----2--|


                                                                        
-----------------------------------|-----------------------------------|
-----------------------------------|-----------------------------------|
-----------------------------------|-----------------------------------|
-----------------------------------|-----------------------------------|
--3--4--5----5----2--3--4--5----5--|----2--3--4--5----5----2--3--4--5--|


                                                                      
----------------------------------|----------------------------------|
----------------------------------|----------------------------------|
----------------------------------|----------------------------------|
----------------------------------|----------------------------------|
----5----2--3--4--5----5----2--3--|--4--5----5----2--3--4--5----5----|


                                                                        
-----------------------------------|-----------------------------------|
-----------------------------------|-----------------------------------|
-----------------------------------|-----------------------------------|
-----------------------------------|-----------------------------------|
--2--3--4--5----5----2--3--4--5----|--5----2--3--4--5----5----2--3--4--|


                                
------------------------------||
------------------------------||
------------------------------||
------------------------------||
--1------1--1------1----------||
Suggest correction
Creating personal tab
Creating personal tab
You can edit any tab online and save it as your Personal.

You can edit, replace or remove any tab part or add personal notes – all changes will be seen only by you.

Personal tabs can be accessed anytime from any device, even offline.
Learn more »
Give kudos to tab author, rate the tab!
1 2 3 4 5
comments
print report bad tab
guest
Wanna post a correction for this tab? Suggest correction