Oops, an error
Loading. Please wait.

Hour Of The Wolf bass

by Messa
70 views 1 this week
no commentswrite comment
1 2 3 4 5
3 more votes to show rating
add to favorites
×
Save as Personal and add changes to this tab that will be seen only by you. Learn more ›
×
You can save this tab as Personal to edit and correct it or add notes. All changes will be seen only by you. Learn more »
launch autoscroll
font size
0
reset
guitar tuner
edit
Autoscroll
slow
fast
+/-
esc
set tempo
stop
               Messa
        - Hour of the Wolf -
               Belfry
 
           tabbed by PelzR

This is a basic bass tab for the song "Hour of the Wolf" from the record "Belfry" by the italian metal
band Messa. No time signatures or note lenghts, also there are some improvisations I didn't tab. Listen
carefully because sometimes on the last repeat you will recognize that the last bar on a riff is not played.

Tuning: Drop D (D A D G)


Riff Section:
-------------

Intro A/Re-Intro A

G|-10----7----|-10----7----|-10----5----|-10----7----||
D|-10----7----|-10----7----|-10----5----|-10----7----||
A|--8----5----|--8----5----|--8----3----|--8----5----||
D|------------|------------|------------|------------||


Intro B/Re-Intro B

G|-----------------|----------------||
D|---------------5-|-------7------7-|| with some slight
A|--------8--3-----|-3--5----5--5---|| variations
D|-5-7-8-----------|----0-----------||

    
Verse 

G|----------------|---------------|----------------|---------------|
D|----------------|---------------|----------------|---------------|
A|-5--5-5-5-5-5-5-|-5-------------|-5--5-5-5-5-5-5-|-5-------------|
D|----------------|---5-7-5-3--2--|----------------|---5-7-5-3--2--| ...

G|----------------|---------------|----------------|---------------||
D|----------------|---------------|----------------|---------------||
A|-3--3-3-3-3-3-3-|-3-------------|-5--5-5-5-5-5-5-|-5-------------||
D|----------------|---5-7-5-3--2--|----------------|---5-7-5-3--2--||

for last bar improvisation:
G|----------------||
D|-------2-3-2----||
A|-5-3-5-------5--||
D|----------------||


Chorus

G|----------------|----------------|----------------|----------------|| in this chorus there are
D|----------------|----------------|----------------|----------------|| some variations/improvisations
A|-1--1-1-1-1-1-1-|-3--3-3-3-3-3-3-|-5--5-5-5-5-5-5-|-5--5-5-5-5-5-5-|| but I only tabbed the basic
D|----------------|----------------|----------------|----------------|| notes

...an example for last bar improvisation:
G|----------------||
D|-------2-3-2----||
A|-5-3-5-------5--||
D|----------------||
  

Bridge

G|------------|------------|--------------|| 
D|------------|------------|------2-3-2---||
A|----5-7-8-5-|----5-7-8-5-|-3--5-------3-||
D|-0----------|-0----------|--------------||


Outro A

G|-----------------|-----------------|-----------------|-----------------||
D|-----------------|-----------------|-----------------|-----------------|| also here are
A|-----------------|-----------------|-----------------|-5-5-5-5-5-5-5-5-|| some improvisations
D|-0-0-0-0-0-0-0-0-|-3-3-3-3-3-3-3-3-|-5-5-5-5-5-5-5-5-|-----------------|| too


Outro B

G|------------|------------|------------|-----------||
D|------------|------------|------2-----|-----------||
A|----5-7-8-5-|----5-7-8-5-|-3--3---5-3-|-2-0-------||
D|-0----------|-0----------|------------|-----5--0--||


Song Structure:
---------------
Intro A     3x
Intro B     4x
Intro A     2x
Intro B     4x
Verse       2x
Chorus      4x
Verse       3x
Chorus      4x
Bridge      4x
Re-Intro A  3x
Re-Intro B  4x
Bridge     13x
Outro A     4x 
Bridge      3x
Outro B     1x

            
            
Suggest correction
Creating personal tab
Creating personal tab
You can edit any tab online and save it as your Personal.

You can edit, replace or remove any tab part or add personal notes – all changes will be seen only by you.

Personal tabs can be accessed anytime from any device, even offline.
Learn more »
Give kudos to tab author, rate the tab!
1 2 3 4 5
comments
print report bad tab
guest
You may want to rate the tab now too:
select rating
Wanna post a correction for this tab? Suggest correction