Oops, an error
Loading. Please wait.

Mountains intro tab

version 1
version 1

Intro

Whole song

Interactive

26,272 views 93 this week
2 commentsread comments
1 2 3 4 5
x 15
add to favorites
×
Save as Personal and add changes to this tab that will be seen only by you. Learn more ›
×
You can save this tab as Personal to edit and correct it or add notes. All changes will be seen only by you. Learn more »
launch autoscroll
font size
0
reset
how to read this tab
guitar tuner
edit
Autoscroll
slow
fast
+/-
esc
set tempo
stop
-------------------------------------------------------------------------------
                             MOUNTAINS - Message to Bears
-------------------------------------------------------------------------------
Tabbed by:
E-mail: brunoluizdepaula@yahoo.com.br

tuning is D-A-D-Fsharp-B-D and capo on 4th!(https://twitter.com/MessageToBears/status/611854506696048640)


D |-----------------------------------------------------------------------|
B |-3---3---3---3---3---3---3---3---2---2---2---2---2---2---2---2---------|
F#|---0---0---0---0---0---0---0---0---0---0---0---0---0---0---0-----------|
D |-----------------------------------------------------------------------|
A |-----------------------------------------------------------------------|
D |-----------------------------------------------------------------------|

e|------------------------------------------------------------------------|
B|-3---3---3---3---3---3---3---3---3/7---7---7---7---7/10---10---10---10--|
G|---0---0---0---0---0---0---0---0-----0---0---0---0------0----0----0----0|
D|------------------------------------------------------------------------|
A|------------------------------------------------------------------------|
E|------------------------------------------------------------------------|

Just repeat along the song, I don't know the rest...

You can help complete this tab, just send me your tabs.


************************************

| /  Slide up

************************************

            
            
Suggest correction
Creating personal tab
Creating personal tab
You can edit any tab online and save it as your Personal.

You can edit, replace or remove any tab part or add personal notes – all changes will be seen only by you.

Personal tabs can be accessed anytime from any device, even offline.
Learn more »
comments
print report bad tab
2 comments total.
0 reply
Bianathetacocat 74 Feb 06, 2016 07:31 PM

This is perfect!

guest
You may want to rate the tab now too:
select rating
Wanna post a correction for this tab? Suggest correction