Oops, an error
Loading. Please wait.

Mountains tab

version 1
version 1

Whole song

Interactive

18,451 views 369 this week
2 commentsread comments
1 2 3 4 5
x 10
add to favorites
×
Save as Personal and add changes to this tab that will be seen only by you. Learn more ›
×
You can save this tab as Personal to edit and correct it or add notes. All changes will be seen only by you. Learn more »
launch autoscroll
font size
0
reset
how to read this tab
guitar tuner
edit
Autoscroll
slow
fast
+/-
esc
set tempo
stop
-------------------------------------------------------------------------------
                             SONG NAME - Band Name
-------------------------------------------------------------------------------
Tabbed by: Daniel Ruggierio Baker
E-mail: Ratdoodle8@gmail.com

I got this tab from this video so if you want you can just 
go watch that: https://www.youtube.com/watch?v=GjIrpMZUp7s

Tuning: DADF#AD

Capo 4 (tab relative to capo)

D |---------------------------------------------------------------------------|
A |-5---5---5---5---5---5---5---5---4---4---4---4---4---4---4---4-------------|
F#|---0---0---0---0---0---0---0---0---0---0---0---0---0---0---0---0-----------|
D |---------------------------------------------------------------------------|
A |---------------------------------------------------------------------------|
D |---------------------------------------------------------------------------|

D |---------------------------------------------------------------------------|
A |-5---5---5---5---5---5---5---5---9---9---9---9---12---12---12---12---------|
F#|---0---0---0---0---0---0---0---0---0---0---0---0----0----0----0----0-------|   x2
D |---------------------------------------------------------------------------|
A |---------------------------------------------------------------------------|
D |---------------------------------------------------------------------------|

And we could run away
D |-0-------2---0-------0-----------0-----------0-----------------------------|
A |-------------------------4-----------2-------------------------------------|
F#|-----0-----------0-----------0-----------0---------------------------------|
D |---4-------4---4-------4---4-------4---4-------4---------------------------|
A |-2-----2-----2-----2-----2-----2-----2-----2-------------------------------|
D |---------------------------------------------------------------------------|

Before the light of day 
D |---------2---0-------0-----------0-----------0-----------------------------|
A |-4-----------------------4-----------2-------------------------------------|
F#|-----0-----------0-----------0-----------0---------------------------------|
D |---4-------4---4-------4---4-------4---4-------4---------------------------|
A |-0-----0-----0-----0-----0-----0-----0-----0-------------------------------|
D |---------------------------------------------------------------------------|

You know we always could 
D |-0-------2---0-------0-----------0-----------0-----------------------------|
A |-------------------------4-----------2-------------------------------------|
F#|-----0-----------0-----------0-----------0---------------------------------|
D |---4-------4---4-------4---4-------4---4-------4---------------------------|
A |---------------------------------------------------------------------------|
D |-2-----2-----2-----2-----2-----2-----2-----2-------------------------------|

The mountains say, the mountains say
D |-4-------4---4-------4---7-------7---7-------7-----------------------------|
A |---------------------------------------------------------------------------|
F#|-----0-----------0-----------0-----------0---------------------------------|
D |---4-------4---4-------4---4-------4---4-------4---------------------------|
A |---------------------------------------------------------------------------|
D |-0-----0-----0-----0-----0-----0-----0-----0-------------------------------|


you can figure out for your self how many times that repeats, but that's pretty much the whole thing.

            
            
Suggest correction
Creating personal tab
Creating personal tab
You can edit any tab online and save it as your Personal.

You can edit, replace or remove any tab part or add personal notes – all changes will be seen only by you.

Personal tabs can be accessed anytime from any device, even offline.
Learn more »
comments
print report bad tab
2 comments total.
0 reply
Daynwsowulf 10 May 25, 2017 11:20 AM

Very accurate, simple and easy to absorb tab. Thanks for making it.

0 reply
yuyutu 10 May 30, 2017 01:34 PM

Great, but I think the capo should be at the 5th

guest
You may want to rate the tab now too:
select rating
Wanna post a correction for this tab? Suggest correction