Oops, an error
Loading. Please wait.

Mountains tab

version 2
version 2

Whole song

Interactive

2,860 views 51 this week
no commentswrite comment
1 2 3 4 5
x 3
add to favorites
×
Save as Personal and add changes to this tab that will be seen only by you. Learn more ›
×
You can save this tab as Personal to edit and correct it or add notes. All changes will be seen only by you. Learn more »
launch autoscroll
font size
0
reset
how to read this tab
guitar tuner
edit
Autoscroll
slow
fast
+/-
esc
set tempo
stop
Tuning: D A E F# B D - Capo 4th

Guitar 1: 
It repeats throughout the song. you can add hammer ons and pull offs in the 2s and 3s see live
videos to know what im talking about.

D |----------------------------|----------------------------|
B |--3-----3-----3-----3-------|--3-----3-----3-----3-------|
F#|-----0-----0-----0-----0----|-----0-----0-----0-----0----|
E |----------------------------|----------------------------|
A |----------------------------|----------------------------|
D |----------------------------|----------------------------|


D |----------------------------|----------------------------|
B |--2-----2-----2-----2-------|--2-----2-----2-----2-------|
F#|-----0-----0-----0-----0----|-----0-----0-----0-----0----|
E |----------------------------|----------------------------|
A |----------------------------|----------------------------|
D |----------------------------|----------------------------|


D |----------------------------|----------------------------|
B |--3-----3-----3-----3-------|--3-----3-----3-----3-------|
F#|-----0-----0-----0-----0----|-----0-----0-----0-----0----|
E |----------------------------|----------------------------|
A |----------------------------|----------------------------|
D |----------------------------|----------------------------|


D |----------------------------|----------------------------|
B |--7-----7-----7-----7-------|--10----10----10----10------|
F#|-----0-----0-----0-----0----|-----0-----0-----0-----0----|
E |----------------------------|----------------------------|
A |----------------------------|----------------------------|
D |----------------------------|----------------------------|


Guitar 2:

D |--0--------------2--------0--------------0----------|
B |----------------------------------------------------|
F#|-----------0-----------------------0----------------|
E |--------2-----------2-----------2-----------2-------|
A |--2-----------2-----------2-----------2-------------|
D |----------------------------------------------------|


D |--0--------------0--------0--------------0----------|
B |----------------------------------------------------|
F#|-----------0-----------------------0----------------|
E |--------2-----------2-----------2-----------2-------|
A |--2-----------2-----------2-----------2-------------|
D |----------------------------------------------------|


D |-----------------2--------0--------------0----------|
B |--2-------------------------------------------------|
F#|-----------0-----------------------0----------------|
E |--------2-----------2-----------2-----------2-------|
A |--0-----------0-----------0-----------0-------------|
D |----------------------------------------------------|


D |--0--------------0--------0--------------0----------|
B |----------------------------------------------------|
F#|-----------0-----------------------0----------------|
E |--------2-----------2-----------2-----------2-------|
A |--0-----------0-----------0-----------0-------------|
D |----------------------------------------------------|


D |--0--------------2--------0--------------0----------|
B |----------------------------------------------------|
F#|-----------0-----------------------0----------------|
E |--------2-----------2-----------2-----------2-------|
A |----------------------------------------------------|
D |--2-----------2-----------2-----------2-------------|


D |--0--------------0--------0--------------0----------|
B |----------------------------------------------------|
F#|-----------0-----------------------0----------------|
E |--------2-----------2-----------2-----------2-------|
A |----------------------------------------------------|
D |--2-----------2-----------2-----------2-------------|


D |--0--------------2--------0--------------0----------|
B |----------------------------------------------------|
F#|-----------0-----------------------0----------------|
E |--------2-----------2-----------2-----------2-------|
A |----------------------------------------------------|
D |--0-----------0-----------0-----------0-------------|


D |--0--------------0--------0--------------0----------|
B |----------------------------------------------------|
F#|-----------0-----------------------0----------------|
E |--------2-----------2-----------2-----------2-------|
A |----------------------------------------------------|
D |--0-----------0-----------0-----------0-------------|


D |--0--------------2--------0--------------0----------|
B |----------------------------------------------------|
F#|-----------0-----------------------0----------------|
E |--------2-----------2-----------2-----------2-------|
A |--2-----------2-----------2-----------2-------------|
D |----------------------------------------------------|


D |--0--------------0--------0--------------0----------|
B |----------------------------------------------------|
F#|-----------0-----------------------0----------------|
E |--------2-----------2-----------2-----------2-------|
A |--2-----------2-----------2-----------2-------------|
D |----------------------------------------------------|


D |-----------------2--------0--------------0----------|
B |--2-------------------------------------------------|
F#|-----------0-----------------------0----------------|
E |--------2-----------2-----------2-----------2-------|
A |--0-----------0-----------0-----------0-------------|
D |----------------------------------------------------|


D |--0--------------0--------0--------------0----------|
B |----------------------------------------------------|
F#|-----------0-----------------------0----------------|
E |--------2-----------2-----------2-----------2-------|
A |--0-----------0-----------0-----------0-------------|
D |----------------------------------------------------|


D |--0--------------2--------0--------------0----------|
B |----------------------------------------------------|
F#|-----------0-----------------------0----------------|
E |--------2-----------2-----------2-----------2-------|
A |----------------------------------------------------|
D |--2-----------2-----------2-----------2-------------|


D |--0--------------0--------0--------------0----------|
B |----------------------------------------------------|
F#|-----------0-----------------------0----------------|
E |--------2-----------2-----------2-----------2-------|
A |----------------------------------------------------|
D |--2-----------2-----------2-----------2-------------|


D |--0--------------2--------0--------------0----------|
B |----------------------------------------------------|
F#|-----------0-----------------------0----------------|
E |--------2-----------2-----------2-----------2-------|
A |----------------------------------------------------|
D |--0-----------0-----------0-----------0-------------|


D |--0--------------0--------0--------------0----------|
B |----------------------------------------------------|
F#|-----------0-----------------------0----------------|
E |--------2-----------2-----------2-----------2-------|
A |----------------------------------------------------|
D |--0-----------0-----------0-----------0-------------|


D |--0--------------2--------0--------------0----------|
B |----------------------------------------------------|
F#|--------0-----------------------0-------------------|
E |-----------------------2-----------------------2----|
A |--2--------2--------------2--------2----------------|
D |----------------------------------------------------|


D |--0--------------0--------0--------------0----------|
B |----------------------------------------------------|
F#|--------0-----------------------0-------------------|
E |-----------------------2-----------------------2----|
A |--2--------2--------------2--------2----------------|
D |----------------------------------------------------|


D |-----------------2--------0--------------0----------|
B |--2-------------------------------------------------|
F#|--------0-----------------------0-------------------|
E |-----------------------2-----------------------2----|
A |--0--------0--------------0--------0----------------|
D |----------------------------------------------------|


D |--0--------------0--------0--------------0----------|
B |----------------------------------------------------|
F#|--------0-----------------------0-------------------|
E |-----------------------2-----------------------2----|
A |--0--------0--------------0--------0----------------|
D |----------------------------------------------------|


D |--0--------------2--------0--------------0----------|
B |----------------------------------------------------|
F#|--------0-----------------------0-------------------|
E |-----------------------2-----------------------2----|
A |----------------------------------------------------|
D |--2--------2--------------2--------2----------------|


D |--0--------------0--------0--------------0----------|
B |----------------------------------------------------|
F#|--------0-----------------------0-------------------|
E |-----------------------2-----------------------2----|
A |----------------------------------------------------|
D |--2--------2--------------2--------2----------------|


D |--0--------------2--------0--------------0----------|
B |----------------------------------------------------|
F#|--------0-----------------------0-------------------|
E |-----------------------2-----------------------2----|
A |----------------------------------------------------|
D |--0--------0--------------0--------0----------------|


D |--0--------------0--------0--------------0----------|
B |----------------------------------------------------|
F#|--------0-----------------------0-------------------|
E |-----------------------2-----------------------2----|
A |----------------------------------------------------|
D |--0--------0--------------0--------0----------------|


D |--0--------------2--------0--------------0----------|
B |----------------------------------------------------|
F#|--------0-----------------------0-------------------|
E |-----------------------2-----------------------2----|
A |--2--------2--------------2--------2----------------|
D |----------------------------------------------------|


D |--0--------------0--------0--------------0----------|
B |----------------------------------------------------|
F#|--------0-----------------------0-------------------|
E |-----------------------2-----------------------2----|
A |--2--------2--------------2--------2----------------|
D |----------------------------------------------------|


D |-----------------2--------0--------------0----------|
B |--2-------------------------------------------------|
F#|--------0-----------------------0-------------------|
E |-----------------------2-----------------------2----|
A |--0--------0--------------0--------0----------------|
D |----------------------------------------------------|


D |--0--------------0--------0--------------0----------|
B |----------------------------------------------------|
F#|--------0-----------------------0-------------------|
E |-----------------------2-----------------------2----|
A |--0--------0--------------0--------0----------------|
D |----------------------------------------------------|


D |--0--------------2--------0--------------0----------|
B |----------------------------------------------------|
F#|--------0-----------------------0-------------------|
E |-----------------------2-----------------------2----|
A |----------------------------------------------------|
D |--2--------2--------------2--------2----------------|


D |--0--------------0--------0--------------0----------|
B |----------------------------------------------------|
F#|--------0-----------------------0-------------------|
E |-----------------------2-----------------------2----|
A |----------------------------------------------------|
D |--2--------2--------------2--------2----------------|


D |--0--------------2--------0--------------0----------|
B |----------------------------------------------------|
F#|--------0-----------------------0-------------------|
E |-----------------------2-----------------------2----|
A |----------------------------------------------------|
D |--0--------0--------------0--------0----------------|


D |--0--------------0--------0--------------0----------|
B |----------------------------------------------------|
F#|--------0-----------------------0-------------------|
E |-----------------------2-----------------------2----|
A |----------------------------------------------------|
D |--0--------0--------------0--------0----------------|


D |--0--------------2--------0--------------0----------|
B |----------------------------------------------------|
F#|-----------0-----------------------0----------------|
E |--------2-----------2-----------2-----------2-------|
A |--2-----------2-----------2-----------2-------------|
D |----------------------------------------------------|


D |--0--------------0--------0--------------0----------|
B |----------------------------------------------------|
F#|-----------0-----------------------0----------------|
E |--------2-----------2-----------2-----------2-------|
A |--2-----------2-----------2-----------2-------------|
D |----------------------------------------------------|


D |-----------------2--------0--------------0----------|
B |--2-------------------------------------------------|
F#|-----------0-----------------------0----------------|
E |--------2-----------2-----------2-----------2-------|
A |--0-----------0-----------0-----------0-------------|
D |----------------------------------------------------|


D |--0--------------0--------0--------------0----------|
B |----------------------------------------------------|
F#|-----------0-----------------------0----------------|
E |--------2-----------2-----------2-----------2-------|
A |--0-----------0-----------0-----------0-------------|
D |----------------------------------------------------|


D |--0--------------2--------0--------------0----------|
B |----------------------------------------------------|
F#|-----------0-----------------------0----------------|
E |--------2-----------2-----------2-----------2-------|
A |----------------------------------------------------|
D |--2-----------2-----------2-----------2-------------|


D |--0--------------0--------0--------------0----------|
B |----------------------------------------------------|
F#|-----------0-----------------------0----------------|
E |--------2-----------2-----------2-----------2-------|
A |----------------------------------------------------|
D |--2-----------2-----------2-----------2-------------|


D |--0--------------2--------0--------------0----------|
B |----------------------------------------------------|
F#|-----------0-----------------------0----------------|
E |--------2-----------2-----------2-----------2-------|
A |----------------------------------------------------|
D |--0-----------0-----------0-----------0-------------|


D |--0--------------0--------0--------------0----------|
B |----------------------------------------------------|
F#|-----------0-----------------------0----------------|
E |--------2-----------2-----------2-----------2-------|
A |----------------------------------------------------|
D |--0-----------0-----------0-----------0-------------|


D |--0--------------2--------0--------------0----------|
B |----------------------------------------------------|
F#|-----------0-----------------------0----------------|
E |--------2-----------2-----------2-----------2-------|
A |--2-----------2-----------2-----------2-------------|
D |----------------------------------------------------|


D |--0--------------0--------0--------------0----------|
B |----------------------------------------------------|
F#|-----------0-----------------------0----------------|
E |--------2-----------2-----------2-----------2-------|
A |--2-----------2-----------2-----------2-------------|
D |----------------------------------------------------|


D |-----------------2--------0--------------0----------|
B |--2-------------------------------------------------|
F#|-----------0-----------------------0----------------|
E |--------2-----------2-----------2-----------2-------|
A |--0-----------0-----------0-----------0-------------|
D |----------------------------------------------------|


D |--0--------------0--------0--------------0----------|
B |----------------------------------------------------|
F#|-----------0-----------------------0----------------|
E |--------2-----------2-----------2-----------2-------|
A |--0-----------0-----------0-----------0-------------|
D |----------------------------------------------------|


D |--0--------------2--------0--------------0----------|
B |----------------------------------------------------|
F#|-----------0-----------------------0----------------|
E |--------2-----------2-----------2-----------2-------|
A |----------------------------------------------------|
D |--2-----------2-----------2-----------2-------------|


D |--0--------------0--------0--------------0----------|
B |----------------------------------------------------|
F#|-----------0-----------------------0----------------|
E |--------2-----------2-----------2-----------2-------|
A |----------------------------------------------------|
D |--2-----------2-----------2-----------2-------------|


D |--0--------------2--------0--------------0----------|
B |----------------------------------------------------|
F#|-----------0-----------------------0----------------|
E |--------2-----------2-----------2-----------2-------|
A |----------------------------------------------------|
D |--0-----------0-----------0-----------0-------------|


D |--0--------------0--------0--------------0----------|-------|-------|-------|
B |----------------------------------------------------|-------|-------|-------|
F#|-----------0-----------------------0----------------|-------|-------|-------|
E |--------2-----------2-----------2-----------2-------|-------|-------|-------|
A |----------------------------------------------------|-------|-------|-------|
D |--0-----------0-----------0-----------0-------------|-------|-------|-------|


D |-------|-------|-------|-------|-------|-------|-------|-------|-------|-------|
B |-------|-------|-------|-------|-------|-------|-------|-------|-------|-------|
F#|-------|-------|-------|-------|-------|-------|-------|-------|-------|-------|
E |-------|-------|-------|-------|-------|-------|-------|-------|-------|-------|
A |-------|-------|-------|-------|-------|-------|-------|-------|-------|-------|
D |-------|-------|-------|-------|-------|-------|-------|-------|-------|-------|


D |-------|-------|-------|--0--------------2--------0--------------0----------|
B |-------|-------|-------|----------------------------------------------------|
F#|-------|-------|-------|-----------0-----------------------0----------------|
E |-------|-------|-------|--------2-----------2-----------2-----------2-------|
A |-------|-------|-------|--2-----------2-----------2-----------2-------------|
D |-------|-------|-------|----------------------------------------------------|


D |--0--------------0--------0--------------0----------|
B |----------------------------------------------------|
F#|-----------0-----------------------0----------------|
E |--------2-----------2-----------2-----------2-------|
A |--2-----------2-----------2-----------2-------------|
D |----------------------------------------------------|


D |-----------------2--------0--------------0----------|
B |--2-------------------------------------------------|
F#|-----------0-----------------------0----------------|
E |--------2-----------2-----------2-----------2-------|
A |--0-----------0-----------0-----------0-------------|
D |----------------------------------------------------|


D |--0--------------0--------0--------------0----------|
B |----------------------------------------------------|
F#|-----------0-----------------------0----------------|
E |--------2-----------2-----------2-----------2-------|
A |--0-----------0-----------0-----------0-------------|
D |----------------------------------------------------|


D |--0--------------2--------0--------------0----------|
B |----------------------------------------------------|
F#|-----------0-----------------------0----------------|
E |--------2-----------2-----------2-----------2-------|
A |----------------------------------------------------|
D |--2-----------2-----------2-----------2-------------|


D |--0--------------0--------0--------------0----------|
B |----------------------------------------------------|
F#|-----------0-----------------------0----------------|
E |--------2-----------2-----------2-----------2-------|
A |----------------------------------------------------|
D |--2-----------2-----------2-----------2-------------|


D |--0--------------2--------0--------------0----------|
B |----------------------------------------------------|
F#|-----------0-----------------------0----------------|
E |--------2-----------2-----------2-----------2-------|
A |----------------------------------------------------|
D |--0-----------0-----------0-----------0-------------|


D |--0--------------0--------0--------------0----------|
B |----------------------------------------------------|
F#|-----------0-----------------------0----------------|
E |--------2-----------2-----------2-----------2-------|
A |----------------------------------------------------|
D |--0-----------0-----------0-----------0-------------|


D |--0--------------2--------0--------------0----------|
B |----------------------------------------------------|
F#|-----------0-----------------------0----------------|
E |--------2-----------2-----------2-----------2-------|
A |--2-----------2-----------2-----------2-------------|
D |----------------------------------------------------|


D |--0--------------0--------0--------------0----------|
B |----------------------------------------------------|
F#|-----------0-----------------------0----------------|
E |--------2-----------2-----------2-----------2-------|
A |--2-----------2-----------2-----------2-------------|
D |----------------------------------------------------|


D |-----------------2--------0--------------0----------|
B |--2-------------------------------------------------|
F#|-----------0-----------------------0----------------|
E |--------2-----------2-----------2-----------2-------|
A |--0-----------0-----------0-----------0-------------|
D |----------------------------------------------------|

            
            
Suggest correction
Creating personal tab
Creating personal tab
You can edit any tab online and save it as your Personal.

You can edit, replace or remove any tab part or add personal notes – all changes will be seen only by you.

Personal tabs can be accessed anytime from any device, even offline.
Learn more »
Give kudos to tab author, rate the tab!
1 2 3 4 5
comments
print report bad tab
guest
Wanna post a correction for this tab? Suggest correction