Oops, an error
Loading. Please wait.

Wake Me Tab

version 3
version 3

Whole song

13 views 6 this week
no commentswrite comment
1 2 3 4 5
3 more votes to show rating
add to favorites
launch autoscroll
font size
0
reset
how to read this tab
guitar tuner
Autoscroll
slow
fast
+/-
esc
set tempo
stop
Help us to improve Ultimate-Guitar.com Take our survey!
×
Author
Difficulty
Tuning
Capo
novice
D A D G B E
3rd fret
About this tab version
This tab uses a different tuning and finger picking. Was this info helpful? Yes No
Tuning: Drop D
Capo 3rd fret (numbers are relative to the capo)


-INTRO (repeated once)-
E-------------------------------------------------------------
B----5-----3-(p0)-0----------------5-----7-----8-----12-------
G-----------------------2------0------------------------------
D-------------------------------------------------------------
A----3-----0-----------------------3-----5-----7-----10-------
E-----------------2-----0-------------------------------------


-MAIN PATTERN-
-A-
E--------------------------------------------------------------------------------------
B----5----------5--------5----------5--------5---------5--------3---------3------------
G----------0--------------------0------------------0------------------0----------------
D--------0--------0----------0--------0----------0-------0----------0-------0----------
A----3-------3-----------3--------3----------3-------3----------0-------0--------------
E--------------------------------------------------------------------------------------

E------------------------------------------------------------------------------------
B----0---------0--------0---------0--------------------------------------------------
G----------0------------------0-------------2---------2--------0h2--------0----------
D--------0-------0----------0-------0-------------0-------------------0--------------
A------------------------------------------------------------------------------------
E----2-------2----------2-------2-----------0---0---0---0------0----0---0---0---------

-B-
E--------------------------------------------------------------------------------------
B----5----------5--------5----------5--------5---------5--------7---------7------------
G----------0--------------------0------------------0------------------0----------------
D--------0--------0----------0--------0----------0-------0----------0-------0----------
A----3-------3-----------3--------3----------3-------3----------5-------5--------------
E--------------------------------------------------------------------------------------

E--------------------------------------------------------------------------------------------
B----8---------8---------8---------8--------12----------12--------12-----------12------------
G----------0-------------------0-------------------0---------------------0-------------------
D--------0-------0-----------0-------0-----------0---------0-----------0----------0----------
A----7-------7-----------7-------7----------10-------10-----------10--------10---------------
E--------------------------------------------------------------------------------------------


0:04   Intro (2x)
0:40   Main A - B
2:26   Break on C
2:39   Main B - A
3:42   Intro (6x)
Suggest correction
Give kudos to tab author, rate the tab!
1 2 3 4 5
comments
print report bad tab
guest
You may want to rate the tab now too:
select rating
Wanna post a correction for this tab? Suggest correction