Oops, an error
Loading. Please wait.

Tabit Delight Tab

206 views 1 this week
no commentswrite comment
1 2 3 4 5
please rate
add to favorites
launch autoscroll
font size
0
reset
how to read this tab
guitar tuner
Autoscroll
slow
fast
+/-
esc
set tempo
stop
Help us to improve Ultimate-Guitar.com Take our survey!
×
E|---------------------------|
B|---------------------------|
G|---------------------------|
D|---------------------------|
A|-0-------------------------|
D|-0-------------------------| <- let that ring for about 10 seconds.


               the close together is tremelo picking
E|-----------------------------------------------------------| 
B|-----------------------------------------------------------|
G|-----------------------------------------------------------| 
D|-----------------------------------------------------------|
A|5555-8888-4444-7777-5555-8888-4444-7777-88-55-77-44-1-4-1-4|
D|-----------------------------------------------------------|

E|------------------------------------------------------------|
B|--------0------------0--------------------0----------------0|
G|--------3------------3--------------------3----------------3|
D|---------------------------------------------------3--------|
A|7-0-000---0-0-0000-7---8-7-8--0-0000-0000----0-000-2-0-000--|
D|8-0-000---0-0-0000-8---7-8-7--0-0000-0000----0-000---0-000--|

E|- ------------------------!-------------------------------------------|
B|--------------------------!-0----0-000---------------0--------------0-|
G|--------------------------!-3----3-333---------------3--------------3-|
D|--------------------------!-------------------------------------------|
A|--------2-------3---3-2---!---0--------0-0--00--0--0---00000-0-0-00---|
D|0-0-000-3-00000-2-0-2-3---!---0--------0-0--00--0--0---00000-0-0-00---|

Suggest correction
What's this?
You can suggest a correction to this tab. Community and Mods will review your correction and vote to approve or reject it.
comments
We did not receive enough feedback on this tab! Please rate:
print report bad tab
1 2 3 4 5
guest
You may want to rate the tab now too:
select rating
Please do not post tabs as comments. Select "correction" instead!