Oops, an error
Loading. Please wait.

25 To Life Bass Tab

by Mest
803 views 1 this week
no commentswrite comment
1 2 3 4 5
please rate
add to favorites
launch autoscroll
font size
0
reset
guitar tuner
Autoscroll
slow
fast
+/-
esc
set tempo
stop
Help us to improve Ultimate-Guitar.com Take our survey!
×
Contributor
Difficulty
sonixon 3,160
novice
Mest
"25 to Life"

*Verse*
G|---------0-2-4-|--------0-2-4-|
D|-2-2-2-2-------|-2-2--2-------|
A|---------------|--------------|
E|---------------|--------------|

G|---------------|--------------|
D|---------0-2-4-|--------0-2-4-|
A|-2-2-2-2-------|-2-2--2-------|
E|---------------|--------------|

G|---------0-2-4-|--------0-2-4-|
D|-2-2-2-2-------|-2-2--2-------|
A|---------------|--------------|
E|---------------|--------------|

G|---------------|--------------|
D|---------0-2-4-|--------4-2-0-|
A|-2-2-2-2-------|-2-2--2-------|
E|---------------|--------------|

*Pre-Chorus*
                          |       2X       |
G|------------------------|----------------|
D|------------------------|----------------|
A|------7-7-7-------------|-4--4-6-7-6-4---| 
E|-5--5-------5-5-5-0-0-5-|--------------7-|

G|--------------------------|---------------------|
D|--------------------------|-----------------9---|
A|------7-7-7---------------|-----9-9-9---5-9---9-|
E|-5--5-------5-5-5-0-0-5-0-|-7-7-------7---------|

*Chorus*
G|---------0-2-4-|--------0-2-4-|
D|-2-2-2-2-------|-2-2--2-------|
A|---------------|--------------|
E|---------------|--------------|

G|---------------|--------------|
D|---------0-2-4-|--------0-2-4-|
A|-2-2-2-2-------|-2-2--2-------|
E|---------------|--------------|

G|---------0-2-4-|--------0-2-4-|
D|-2-2-2-2-------|-2-2--2-------|
A|---------------|--------------|
E|---------------|--------------|

G|---------------|--------------|
D|---------0-2-4-|--------4-2-0-|
A|-2-2-2-2-------|-2-2--2-------|
E|---------------|--------------|


*Verse*

G|---------0-2-4-|--------0-2-4-|
D|-2-2-2-2-------|-2-2--2-------|
A|---------------|--------------|
E|---------------|--------------|

G|---------------|--------------|
D|---------0-2-4-|--------0-2-4-|
A|-2-2-2-2-------|-2-2--2-------|
E|---------------|--------------|

 "I said grab your things and get your son"
G|-----------------------------------------|
D|2------------------------2---------------|
A|-----------------------------------------|
E|-----------------------------------------|

G|---------------|--------------|
D|---------0-2-4-|--------0-2-4-|
A|-2-2-2-2-------|-2-2--2-------|
E|---------------|--------------|

G|---------0-2-4-|--------0-2-4-|
D|-2-2-2-2-------|-2-2--2-------|
A|---------------|--------------|
E|---------------|--------------|

G|---------------|--------------|
D|---------0-2-4-|--------4-2-0-|
A|-2-2-2-2-------|-2-2--2-------|
E|---------------|--------------|

*Pre Chorus*
                          |       2X       |
G|------------------------|----------------|
D|------------------------|----------------|
A|------7-7-7-------------|-4--4-6-7-6-4---| 
E|-5--5-------5-5-5-0-0-5-|--------------7-|

G|--------------------------|---------------------|
D|--------------------------|-----------------9---|
A|------7-7-7---------------|-----9-9-9---5-9---9-|
E|-5--5-------5-5-5-0-0-5-0-|-7-7-------7---------|

*Chorus*
G|---------0-2-4-|--------0-2-4-|
D|-2-2-2-2-------|-2-2--2-------|
A|---------------|--------------|
E|---------------|--------------|

G|---------------|--------------|
D|---------0-2-4-|--------0-2-4-|
A|-2-2-2-2-------|-2-2--2-------|
E|---------------|--------------|

G|---------0-2-4-|--------0-2-4-|
D|-2-2-2-2-------|-2-2--2-------|
A|---------------|--------------|
E|---------------|--------------|

G|---------------|--------------|
D|---------0-2-4-|--------4-2-0-|
A|-2-2-2-2-------|-2-2--2-------|
E|---------------|--------------|

*slow jobby*
 |4 bts|4 bts|4 bts|4 bts|
G|-----|-----|-----|-----|
D|-----|-----|-----|-----|
A|--7~~|-----|-----|-----|
E|-----|--7~~|--0~~|--7~~|

*Fill jobby*
G|-------------|
D|---------9---|
A|-------9---9-|
E|-7-5---------|

*Outro*
G|---------0-2-4-|--------0-2-4-|
D|-2-2-2-2-------|-2-2--2-------|
A|---------------|--------------|
E|---------------|--------------|

G|---------------|--------------|
D|---------0-2-4-|--------0-2-4-|
A|-2-2-2-2-------|-2-2--2-------|
E|---------------|--------------|

G|---------0-2-4-|--------0-2-4-|
D|-2-2-2-2-------|-2-2--2-------|
A|---------------|--------------|
E|---------------|--------------|

G|---------------|--------------|
D|---------0-2-4-|--------4-2-0-|
A|-2-2-2-2-------|-2-2--2-------|
E|---------------|--------------|

G|---------0-2-4-|--------0-2-4-|
D|-2-2-2-2-------|-2-2--2-------|
A|---------------|--------------|
E|---------------|--------------|

G|---------------|--------------|
D|---------0-2-4-|--------0-2-4-|
A|-2-2-2-2-------|-2-2--2-------|
E|---------------|--------------|

G|---------0-2-4-|--------0-2-4-|
D|-2-2-2-2-------|-2-2--2-------|
A|---------------|--------------|
E|---------------|--------------|

G|---------------|--------------|
D|---------0-2-4-|--------4-2-0-|
A|-2-2-2-2-------|-2-2--2-------|
E|---------------|--------------|

G|---------0-2-4-|--------0-2-4-|
D|-2-2-2-2-------|-2-2--2-------|
A|---------------|--------------|
E|---------------|--------------|

G|---------------|--------------|
D|---------0-2-4-|--------0-2-4-|
A|-2-2-2-2-------|-2-2--2-------|
E|---------------|--------------|

G|---------0-2-4-|--------0-2-4-|
D|-2-2-2-2-------|-2-2--2-------|
A|---------------|--------------|
E|---------------|--------------|

G|---------------|--------------|
D|---------0-2-4-|--------4-2-0-|
A|-2-2-2-2-------|-2-2--2-------|
E|---------------|--------------|

*ending* w/ drums
G|---------0-2-4-|---------------|
D|-2-2-2-2-------|-----------0-2-|
A|---------------|-0-0-0-0-3-----|
E|---------------|---------------|

G|---------------|---------------|
D|---------0-2-4-|---------4-2-0-|
A|-2-2-2-2-------|-2-2-2---------|
E|---------------|---------------|
comments
We did not receive enough feedback on this tab! Please rate:
print report bad tab
1 2 3 4 5
I want to post or [tab]
guest
You may want to rate the tab now too:
select rating
Please do not post tabs as comments. Select "correction" instead!