Oops, an error
Loading. Please wait.

As His Black Heart Dies My Mistake Tab

version 1
version 1

Whole song

Interactive

by Mest
673 views 1 this week
1 commentread comment
1 2 3 4 5
2 more votes to show rating
add to favorites
launch autoscroll
font size
0
reset
how to read this tab
guitar tuner
Autoscroll
slow
fast
+/-
esc
set tempo
stop
Help us to improve Ultimate-Guitar.com Take our survey!
×
Author
As His Black Heart Dies (My Mistake)

Intro pt.1
e----------------------------------|
b-----------------2220002220002200-|
g-----------------3333333333330000-| (x2)
D-9998889998889988-----------------|
A-0000000000000000-----------------|
E----------------------------------|


Intro pt2
e-8887778887778877-----------------|
b-----------------999777999777-----| (x2)
g-----------------------------9988-|


Verse
(His actions speak nothing but lies...)
e------------------------------|
b------------------------------|
g------------------------------|
D-7777-7777-777/3333-3333-333--|(x2)
A-7777-7777-777/3333-3333-333--|
E-5555-5555-555/1111-1111-111--|
  .... .... ..  .... .... ..

 (Disease eats inside...)
e-----------------------------------------------------|
b-----------------------------------------------------|
g----------7/9----------5~----------7/9----------5~---|
D-77777777-7/9-33333333-5~-77777777-7/9-33333333-5~5~-|
A-77777777-5/7-33333333-3~-77777777-5/7-33333333-3~5~-|
E-55555555-----11111111----55555555-----11111111---3~-|

Chorus
 (You're my mistake...)
e-------------------------------------------------------------------|
b-------------------------------------------------------------------|
g-555555555555555555555555-5/7/9/5--------------------------5/7/9/5-|
D-555555555555555555555555-5/7/9/5-777777777777777777777777-5/7/9/5-|
A-333333333333333333333333-3/5/7/3-777777777777777777777777-3/5/7/3-|
E----------------------------------555555555555555555555555---------|

(Don't let the truth be told...)
 ---------------------------------------------------------|
 ---------------------------------------------------------|
 ---------------------------------------------------------|
 -333333333333333333333333/555555555555555555555555-5-5-5-|
 -333333333333333333333333/555555555555555555555555-5-5-5-|
 -111111111111111111111111/333333333333333333333333-3-3-3-|

Link
e--------|
b--------|
g--------|
D-5-6-5~-|
A-5-5-7~-|
E-3-4-5~-|

Verse
(Break my chest in two...)

Chorus
(You're my mistake...)

Interlude
 (I leave my heart to take...)
e-000000-000000-000000-000000-      -0xxxx0~-|
b-111111-000000-111111-111111-      -1xxxx1~-|
g-222222-000000-222222-000000- (x2) -2xxxx0~-|
D-222222-222222-222222-222222-      -2xxxx2~-|
A-000000-222222-000000-333333-      -0xxxx3~-|
E--------000000---------------      --xxxx---|
  (Am)    (Em)   (Am)    (C)        (Am)  (C)

Played over chords part of interlude
e-7-8-7-8-5--7-8-7-8-3--7-8-7-8-1--7-6-7-10-8-7-8-|
b-------------------------------------------------|
g-------------------------------------------------|
D-------------------------------------------------| (x2)
A-------------------------------------------------|
E-------------------------------------------------|

Bridge
(You're my mistake...) (Don't let the truth be told...)
e------------      ---------------------------------------------------------|
b------------      ---------------------------------------------------------|
g-5~---------      ---------------------------------------------------------|
D-5~---------      -333333333333333333333333/555555555555555555555555-5-5-5-|
A-3~-3/5-2-3~      -333333333333333333333333/555555555555555555555555-5-5-5-|
E------------      -111111111111111111111111/333333333333333333333333-3-3-3-|

Chorus
(You're my mistake)

Outro     (Played at the same time as outro)
e-----    ------|
b-----    --88~-|
g-----    -5----|
D-567~    ------|
A-557~    ------|
E-345~    ------|

~Pe@ce Out~
Suggest correction
Give kudos to tab author, rate the tab!
1 2 3 4 5
comments
print report bad tab
1 comment total.
0 reply
Frankie7 147 Jul 12, 2009 06:43 AM

great song, great tab ;) thx dude

guest
You may want to rate the tab now too:
select rating
Wanna post a correction for this tab? Suggest correction