Oops, an error
Loading. Please wait.

As His Heart Dies My Mistake Tab

by Mest
128 views 1 this week
no commentswrite comment
1 2 3 4 5
please rate
add to favorites
launch autoscroll
font size
0
reset
how to read this tab
guitar tuner
Autoscroll
slow
fast
+/-
esc
set tempo
stop
Help us to improve Ultimate-Guitar.com Take our survey!
×
Contributor
Mest-As His Black Heart Dies

Intro:

E|----------------------(2x)------------------------|
B|--------------------------------------------------|
G|--555-444-555-444-55-44--222-000-222-000-000-000--|x1
D|--777-777-777-777-77-77--333-333-333-333-222-000--|
A|--------------------------------------------------|
E|--------------------------------------------------|

E|-------------------------------------------------------|
B|-------------------------------------------------------|
G|--171717-161616-171717-161616-1717-1616-141414-121212--|
D|-------------------------------------------------------|
A|--151515-141414-151515-141414-1515-1414-121212-101010--|
E|-------------------------------------------------------|

E|-------------------------|
B|-------------------------|
G|--141414-121212-1010-99--|x2
D|-------------------------|
A|--121212-101010--8-8-77--|
E|-------------------------|

Verse:

E|----------------------------------------------------------------------|
B|----------------------------------------------------------------------|
G|--xxxxxx------xxxxxx------xxxxxx------xxxxxx------xxxxxx------xxxxxx--|x2
D|--777777------777777------777777------333333------333333------333333--|
A|--777777------777777------777777------333333------333333------333333--|
E|--555555------555555------555555------111111------111111------111111--|

(Disease eats inside...)
E|--------------------------------------|
B|--------------------------------------|
G|--------------------------------------|
D|--7777777777777777--3333333333333333--|
A|--7777777777777777--3333333333333333--|
E|--5555555555555555--1111111111111111--|

(The sun starts...)
E|------------------------------------------|
B|------------------------------------------|
G|------------------------------------------|
D|--7777777777777777--3333333333333333--5~--|
A|--7777777777777777--3333333333333333--5~--|
E|--5555555555555555--1111111111111111--3~--|

Chorus:

(You're my...)
E|--------------------------------------|
B|--------------------------------------|
G|--5555555555555555--2222222222222222--|
D|--5555555555555555--2222222222222222--|
A|--3333333333333333--0000000000000000--|
E|--------------------------------------|

(Don't let...)
E|---------------------------------------------------|
B|---------------------------------------------------|
G|---------------------------------------------------|
D|--3333333333333333--5555555555555555--666xx66------|
A|--3333333333333333--5555555555555555--666xx66--323-|
E|--1111111111111111--3333333333333333--444xx44--555-|


Verse 2:

(Break my...)
E|----------------------------------------------------------------------|
B|----------------------------------------------------------------------|
G|--xxxxxx------xxxxxx------xxxxxx------xxxxxx------xxxxxx------xxxxxx--|x2
D|--777777------777777------777777------333333------333333------333333--|
A|--777777------777777------777777------333333------333333------333333--|
E|--555555------555555------555555------111111------111111------111111--|

(Half a heart...)
E|----------------------------------------------------------|
B|----------------------------------------------------------|
G|----------------------------------------------------------|x2
D|--7777------7777------777--------3333------3333------333--|
A|--7777------7777------777--------3333------3333------333--|
E|--5555------5555------555--------1111------1111------111--|

e|----------|
B|----------|
G|----------|
D|--555555--|
A|--555555--|
E|--333333--|


Then play Chorus

Bridge: Clean

I leave my heart...)


E|--------------------------------------------------|
B|--------------------------------------------------|
G|--------------------------------------5555555555--|x2
D|--7777777777--2222222222--3333333333--5555555555--|
A|--7777777777--2222222222--3333333333--3333333333--|
E|--5555555555--0000000000--1111111111--------------|

(I'm lost...)
E|--------------|
B|--------------|
G|--------------|
D|--2222--3333--|
A|--2222--3333--|
E|--0000--1111--|

Chorus 2:

(You're my..)(As his..)
E|-----------|---------|
B|-----------|---------|
G|--5~-------|--7-4-5--|
D|--5--------|---------|
A|--3--------|--5-2-3--|
E|-----------|---------|

(Don't let...)
E|---------------------------------------------------|
B|---------------------------------------------------|
G|---------------------------------------------------|
D|--3333333333333333--5555555555555555--666xx66------|
A|--3333333333333333--5555555555555555--666xx66--323-|
E|--1111111111111111--3333333333333333--444xx44--555-|

(You're my...)
E|--------------------------------------|
B|--------------------------------------|
G|--5555555555555555--2222222222222222--|
D|--5555555555555555--2222222222222222--|
A|--3333333333333333--0000000000000000--|
E|--------------------------------------|

(Don't let...)
E|------------------------------------------------------|
B|------------------------------------------------------|
G|---------------------------------------------------5~-|
D|--3333333333333333--5555555555555555--666xx66------5~-|
A|--3333333333333333--5555555555555555--666xx66--32--3~-|
E|--1111111111111111--3333333333333333--444xx44--55-----|


comments
We did not receive enough feedback on this tab! Please rate:
print report bad tab
1 2 3 4 5
I want to post or [tab]
guest
You may want to rate the tab now too:
select rating
Please do not post tabs as comments. Select "correction" instead!