Oops, an error
Loading. Please wait.

Breakin Down Tab

version 1
version 1

Whole song

Interactive

by Mest
409 views 1 this week
no commentswrite comment
1 2 3 4 5
please rate
add to favorites
launch autoscroll
font size
0
reset
how to read this tab
guitar tuner
Tab Pro tools
  • play this tab
  • loop segment
  • change instrument
  • show fretboard
  • metronome
×
Best way to learn
"Breakin Down"
Autoscroll
slow
fast
+/-
esc
set tempo
stop
hey this is a very easy but cool song to play.

e|-----------------------------------------------------------------------|
b|-----------------------------------------------------------------------|
g|-55xx-------------------------5~---------------------------------------|
d|-55xx 55xx 33xx 55x--2X->-----5~---------------------------------------|
a|-33xx 55xx 33xx 55x-----------3~---------------------------------------|
E|----- 33xx 11xx 33x----------------------------------------------------|

e|------------------------------|
b|-(5-5-5-5)--------------------|
g|----------5-2-----------------|
d|----------5-2-5-3-------------|d|-3~---------|
a|----------3-0-5-3-------------|a|-3~---------|
E|--------------3-1-------------|E|-1~---------|
           -------- PM

e|--------------|
b|--------------|
g|-55-----------|
d|-55-55-33-55--| |-5~-|
a|-33-55-33-55--| |-5~-|
E|----33-11-33--| |-3~-|

(guitar 1)                  (guitar 2)
e|------------------------| |------------------------|
b|------------------------| |------------------------|
g|------5---5-5-----------| |-5-2--------------------| 
d|---5-5-5-5-5------------| |-5-2-5-3----------------|
a|------------------------| |-3-0-5-3----------------| 
E|------------------------| |-----3-1----------------|
     --  -- - PM              ------- PM

e|------------------------|
b|------------------------|
g|-55-22------------------| 
d|-55-22-55-33------------|
a|-33-00-55-33------------| 
E|-------33-11------------|


e|--------------|
b|--------------|
g|-55-----------|
d|-55-55-33-55--| 
a|-33-55-33-55--| first play it with pause between the chords and then normal
E|----33-11-33--| 

e|--------------|
b|--------------|
g|--------------|
d|-77-55-33-55--|
a|-77-55-33-55--|
E|-55-33-11-33--|

guitar 1          guitar 2 I'm not really sure about this solo but it sounds ok.
e|--------------| |---------------------------------|
b|--------------| |---------------------------------|
g|-55-----------| |-9/7-7/9/5--5-5-7-7-4-5-4-5-7-7--|
d|-55-55-33-55--| |---------------------------------|
a|-33-55-33-55--| |---------------------------------|
E|----33-11-33--| |---------------------------------|

e|--------------------------------------------|
b|--------------------------------------------|
g|-77(xx)-------------------------------------|
d|-77(xx)77(xx)-55(xx)-77(xx)-----------------|
a|-55(xx)77(xx)-55(xx)-77(xx)-----------------|
E|-------55(xx)-33(xx)-55(xx)-----------------|

end on 
g|-7!
d|-7!
a|-5!

hehe...that's it
comments
We did not receive enough feedback on this tab! Please rate:
print report bad tab
1 2 3 4 5
I want to post or [tab]
guest
You may want to rate the tab now too:
select rating
Please do not post tabs as comments. Select "correction" instead!