Oops, an error
Loading. Please wait.

Burning Bridges Tab

version 1
version 1

Whole song

Interactive

by Mest
711 views 1 this week
no commentswrite comment
1 2 3 4 5
accurate
x 4
add to favorites
launch autoscroll
font size
0
reset
how to read this tab
guitar tuner
Autoscroll
slow
fast
+/-
esc
set tempo
stop
Help us to improve Ultimate-Guitar.com Take our survey!
×
Difficulty
novice
I couldn't find a good tab for this song so i decided to make one myself. I'm sure its 
dead accurate but if not, well then make a tab yourself. It's in standard tuning and uses 
distorted ska sound i think. In the second verse, there is an instrument that i made a tab for.


Intro:

E--2---2---2---2--------3---------5-------------2----------------------|
B--3---3---3---3-(x2)---3--(x4)---5---(x4)------3----(x4)--------------| (x2)
G--4---4---4---4--------4---------6-------------2----------------------|
D----------------------------------------------------------------------|
A----------------------------------------------------------------------|
E----------------------------------------------------------------------|

Pre Chorus:

E--3----------5------------5---------------------0---------------------|
B--3---(x2)---5---(x2)-----3---(x4)------------3---3-------------------|
G--4----------6------------2-----------------2-------------------------| (x4)
D----------------------------------------------------------------------|
A----------------------------------------------------------------------|
E----------------------------------------------------------------------|

Chorus:

E---5------------------------------------------------------------------|
B---5--(first time only in background)---------------------------------|
G---6------------------------------------7-----------------------------|
D----------------------------------------7-(x4)--4------5-------7------|
A----------------------------------------5-------4-(x4)-5-(x4)--7-(x4)-|
E------------------------------------------------2------3-------5------|


Verse 2:

E-----22--21--22--19---------------22--21--22--19--------22--21--22--19-|
B--------------------(x2)-----------------------------------------------|
G-16--------------------------------------------------------------------|
D-----------------------------19--------------------16------------------|
A-----------------------------------------------------------------------|
E-----------------------------------------------------------------------|

Bridge:

E----------------------------------------------------------------------|
B----------------------------------------------------------------------|
G--7--------6-------------------------------------4--------------------|
D--7--(x4)--7--(x4)--5--------7-------------------4--------------------|
A--5--------4--------5--(x4)--7--(x4)----(End on)-2--------------------|
E--------------------3--------5----------------------------------------|

Go back to verse two then Chorus again then bridge and that's it
Suggest correction
comments
print report bad tab
guest
You may want to rate the tab now too:
select rating
Wanna post a correction for this tab? Suggest correction