Oops, an error
Loading. Please wait.

Cadillac Tab

version 5
version 5

Whole song

Interactive

by Mest
211 views 1 this week
no commentswrite comment
1 2 3 4 5
please rate
add to favorites
launch autoscroll
font size
0
reset
how to read this tab
guitar tuner
Autoscroll
slow
fast
+/-
esc
set tempo
stop
Help us to improve Ultimate-Guitar.com Take our survey!
×
Author
-------------------------------------------------------------------------------
                             CADILLAC - Mest
-------------------------------------------------------------------------------
Tabbed by: Chris Salway (http://insomnia.dteq.org)
Email: randy_rabbit89@hotmail.com

Tuning:EADGBe

Intro
e|-----|
B|-----|
G|-----|
D|-3-4-|
A|-3-4-|
E|-1-2-|

e|---------------------------------------------------------------------------|
B|---------------------------------------------------------------------------|
G|-5-5---------------5-5-----------------------------------------------------|
D|-5-5-4-4--3-3-4-4--5-5-4-4--3-3-4-4------X2--------------------------------|
A|-3-3-4-4--3-3-4-4--3-3-4-4--3-3-4-4----------------------------------------|
E|-----2-2--1-1-2-2------2-2--1-1-2-2----------------------------------------|

Verse
e|---------------------------------------------------------------------------|
B|---------------------------------------------------------------------------|
G|-5-5-5-5-5-5-5-5-----------------------------------------------------------|
D|-5-5-5-5-5-5-5-5-5-5-5-5-5-5-5-5-7-7-7-7-7-7-7-7-3-3-3-3-3-3-3-3-----------|
A|-3-3-3-3-3-3-3-3-5-5-5-5-5-5-5-5-7-7-7-7-7-7-7-7-3-3-3-3-3-3-3-3-----------|
E|-----------------3-3-3-3-3-3-3-3-5-5-5-5-5-5-5-5-1-1-1-1-1-1-1-1-----------|
PM----------------------------------------------------------------
   It's friday night...

e|---------------------------------------------------------------------------|
B|---------------------------------------------------------------------------|
G|-5-------------------------------------------------------------------------|
D|-5--5-5--7-7--3-3----------------------------------------------------------|
A|-3--5-5--7-7--3-3--x2------------------------------------------------------|
E|----3-3--5-5--1-1----------------------------------------------------------|
   I'll see her later...

e|---------------------------------------------------------------------------|
B|---------------------------------------------------------------------------|
G|-5-5-5-5-5-5-5-5-----------------------------------------------------------|
D|-5-5-5-5-5-5-5-5-5-5-5-5-5-5-5-5-7-7-7-7-7-7-7-7-3-3-3-3-3-3-3-3-----------|
A|-3-3-3-3-3-3-3-3-5-5-5-5-5-5-5-5-7-7-7-7-7-7-7-7-3-3-3-3-3-3-3-3-----------|
E|-----------------3-3-3-3-3-3-3-3-5-5-5-5-5-5-5-5-1-1-1-1-1-1-1-1-----------|
PM----------------------------------------------------------------
But now it's time to roll...

e|---------------------------------------------------------------------------|
B|---------------------------------------------------------------------------|
G|-5-------------------------------------------------------------------------|
D|-5--5-5--7-7--3-3----------------------------------------------------------|
A|-3--5-5--7-7--3-3--x2------------------------------------------------------|
E|----3-3--5-5--1-1----------------------------------------------------------|
Well I never do what I am told...

Bridge
e|---------------------------------------------------------------------------|
B|---------------------------------------------------------------------------|
G|---------------------------------------------------------------------------|
D|-5-5-5-5-5-5-5-5-5-5-5-5---------------------------------------------------|
A|-5-5-5-5-5-5-5-5-5-5-5-5---------------------------------------------------|
E|-3-3-3-3-3-3-3-3-3-3-3-3---------------------------------------------------|
PM------------------------
So now we're gonna roll...

Chorus
e|---------------------------------------------------------------------------|
B|---------------------------------------------------------------------------|
G|-5-5---------------5-5-----------------------------------------------------|
D|-5-5-4-4--3-3-4-4--5-5-4-4--3-3-4-4------X2--------------------------------|
A|-3-3-4-4--3-3-4-4--3-3-4-4--3-3-4-4----------------------------------------|
E|-----2-2--1-1-2-2------2-2--1-1-2-2----------------------------------------|
With the top down seat back rollin' in my Cadillac

Verse 2
e|---------------------------------------------------------------------------|
B|---------------------------------------------------------------------------|
G|-5-5-5-5-5-5-5-5-----------------------------------------------------------|
D|-5-5-5-5-5-5-5-5-5-5-5-5-5-5-5-5-7-7-7-7-7-7-7-7-3-3-3-3-3-3-3-3-----------|
A|-3-3-3-3-3-3-3-3-5-5-5-5-5-5-5-5-7-7-7-7-7-7-7-7-3-3-3-3-3-3-3-3-----------|
E|-----------------3-3-3-3-3-3-3-3-5-5-5-5-5-5-5-5-1-1-1-1-1-1-1-1-----------|
PM----------------------------------------------------------------
We order another round...

e|---------------------------------------------------------------------------|
B|---------------------------------------------------------------------------|
G|-5-------------------------------------------------------------------------|
D|-5--5-5--7-7--3-3----------------------------------------------------------|
A|-3--5-5--7-7--3-3--x2------------------------------------------------------|
E|----3-3--5-5--1-1----------------------------------------------------------|
I hope she gets here soon...

e|---------------------------------------------------------------------------|
B|---------------------------------------------------------------------------|
G|-5-5-5-5-5-5-5-5-----------------------------------------------------------|
D|-5-5-5-5-5-5-5-5-5-5-5-5-5-5-5-5-7-7-7-7-7-7-7-7-3-3-3-3-3-3-3-3-----------|
A|-3-3-3-3-3-3-3-3-5-5-5-5-5-5-5-5-7-7-7-7-7-7-7-7-3-3-3-3-3-3-3-3-----------|
E|-----------------3-3-3-3-3-3-3-3-5-5-5-5-5-5-5-5-1-1-1-1-1-1-1-1-----------|
PM----------------------------------------------------------------
Cause now I'm all torn up...

e|---------------------------------------------------------------------------|
B|---------------------------------------------------------------------------|
G|-5-------------------------------------------------------------------------|
D|-5--5-5--7-7--3-3----------------------------------------------------------|
A|-3--5-5--7-7--3-3--x2------------------------------------------------------|
E|----3-3--5-5--1-1----------------------------------------------------------|
Then I get word my girl's ...

Bridge
e|---------------------------------------------------------------------------|
B|---------------------------------------------------------------------------|
G|---------------------------------------------------------------------------|
D|-5-5-5-5-5-5-5-5-5-5-5-5---------------------------------------------------|
A|-5-5-5-5-5-5-5-5-5-5-5-5---------------------------------------------------|
E|-3-3-3-3-3-3-3-3-3-3-3-3---------------------------------------------------|
PM------------------------
So now I'm gonna roll...
 
Chorus
e|---------------------------------------------------------------------------|
B|---------------------------------------------------------------------------|
G|-5-5---------------5-5-----------------------------------------------------|
D|-5-5-4-4--3-3-4-4--5-5-4-4--3-3-4-4------X2--------------------------------|
A|-3-3-4-4--3-3-4-4--3-3-4-4--3-3-4-4----------------------------------------|
E|-----2-2--1-1-2-2------2-2--1-1-2-2----------------------------------------|
With the top down seat back rollin' in my Cadillac

Bridge
e|---------------------------------------------------------------------------|
B|---------------------------------------------------------------------------|
G|---------------------------------------------------------------------------|
D|-5-5-5-5-5-5-5-5-5-5-5-5---------------------------------------------------|
A|-5-5-5-5-5-5-5-5-5-5-5-5---------------------------------------------------|
E|-3-3-3-3-3-3-3-3-3-3-3-3---------------------------------------------------|
PM------------------------
Rollin'...

Middle 8
e|---------------------------------------------------------------------------|
B|---------------------------------------------------------------------------|
G|-5-5-5-5-5-5-5-5-----------------------------------------------------------|
D|-5-5-5-5-5-5-5-5-5-5-5-5-5-5-5-5-7-7-7-7-7-7-7-7-3-3-3-3-3-3-3-3-----------|
A|-3-3-3-3-3-3-3-3-5-5-5-5-5-5-5-5-7-7-7-7-7-7-7-7-3-3-3-3-3-3-3-3--x 2------|
E|-----------------3-3-3-3-3-3-3-3-5-5-5-5-5-5-5-5-1-1-1-1-1-1-1-1-----------|
With the top down seat back rollin' in my Cadillac...

e|---------------------------------------------------------------------------|
B|---------------------------------------------------------------------------|
G|-5-5-5-5-------------------------------------------------------------------|
D|-5-5-5-5-4-4-4-4-3-3-3-3-4-4-4-4-------------------------------------------|
A|-3-3-3-3-4-4-4-4-3-3-3-3-4-4-4-4-x4----------------------------------------|
E|---------2-2-2-2-1-1-1-1-2-2-2-2-------------------------------------------|
PM--------------------------------
With the top down seat back..

e|---------------------------------------------------------------------------|
B|---------------------------------------------------------------------------|
G|---------------------------------------------------------------------------|
D|---------------------------------------------------------------------------|
A|---------------------------------------------------------------------------|
E|----------------------xxxxxxxxxxxxxxxxxxxxxxxxxxxxxxxxxxxxxxxxxxxxxxxxxx---|
Rollin                  (pick slide)

Chorus
e|---------------------------------------------------------------------------|
B|---------------------------------------------------------------------------|
G|-5-5-5-5-5-5-5-5-----------------------------------------------------------|
D|-5-5-5-5-5-5-5-5-5-5-5-5-5-5-5-5-7-7-7-7-7-7-7-7-3-3-3-3-3-3-3-3-----------|
A|-3-3-3-3-3-3-3-3-5-5-5-5-5-5-5-5-7-7-7-7-7-7-7-7-3-3-3-3-3-3-3-3-----------|
E|-----------------3-3-3-3-3-3-3-3-5-5-5-5-5-5-5-5-1-1-1-1-1-1-1-1-----------|
Top down seat back rollin in my...

e|---------------------------------------------------------------------------|
B|---------------------------------------------------------------------------|
G|--------5-5-5-5------------------------------------------------------------|
D|--------5-5-5-5-5-5-5-5-5-5-5-5-7-7-7-7-7-7-7-7-3-3-3--3-3-3---------------|
A|--------3-3-3-3-5-5-5-5-5-5-5-5-7-7-7-7-7-7-7-7-3-3-3--3-3-3---------------|
E|----------------3-3-3-3-3-3-3-3-5-5-5-5-5-5-5-5-1-1-1--1-1-1---------------|
PM                                                ---    ---
Top down seat back rollin in my...

e|---------------------------------------------------------------------------|
B|---------------------------------------------------------------------------|
G|-5-5-5-5-5-5-5-5-----------------------------------------------------------|
D|-5-5-5-5-5-5-5-5-5-5-5-5-5-5-5-5-7-7-7-7-7-7-7-7-3-3-3-3-3-3-3-3-----------|
A|-3-3-3-3-3-3-3-3-5-5-5-5-5-5-5-5-7-7-7-7-7-7-7-7-3-3-3-3-3-3-3-3--x 2------|
E|-----------------3-3-3-3-3-3-3-3-5-5-5-5-5-5-5-5-1-1-1-1-1-1-1-1-----------|
Top down seat back rollin in my...

Outro
e|---------------------------------------------------------------------------|
B|---------------------------------------------------------------------------|
G|---------------------------------------------------------------------------|
D|-5~----------3-4-----------------------------------------------------------|
A|-5-----------3-4-----------------------------------------------------------|
E|-3-----------1-2-----------------------------------------------------------|

e|---------------------------------------------------------------------------|
B|---------------------------------------------------------------------------|
G|-5-5---------------5-5-----------------------------------------------------|
D|-5-5-4-4--3-3-4-4--5-5-4-4--3-3-4-4------X4--------------------------------|
A|-3-3-4-4--3-3-4-4--3-3-4-4--3-3-4-4----------------------------------------|
E|-----2-2--1-1-2-2------2-2--1-1-2-2----------------------------------------|


| /  slide up
| \  slide down
| h  hammer-on
| p  pull-off
| ~  vibrato
| +  harmonic
| x  Mute note
| PM Palm Mute
===============================================================================
Suggest correction
What's this?
You can suggest a correction to this tab. Community and Mods will review your correction and vote to approve or reject it.
comments
We did not receive enough feedback on this tab! Please rate:
print report bad tab
1 2 3 4 5
guest
You may want to rate the tab now too:
select rating
Please do not post tabs as comments. Select "correction" instead!