Oops, an error
Loading. Please wait.

Change Bass Tab

version 1
version 1

Whole song

Interactive

by Mest
195 views 1 this week
no commentswrite comment
1 2 3 4 5
please rate
add to favorites
launch autoscroll
font size
0
reset
guitar tuner
Tab Pro tools
  • play this tab
  • loop segment
  • change instrument
  • show fretboard
  • metronome
Autoscroll
slow
fast
+/-
esc
set tempo
stop
-----------------------------------------------------------------------------
			    Song Name : Change   
			       Band : Mest   
			   Album : wasting Time   
-----------------------------------------------------------------------------

Tabbed By : Emanuel

My first tab, please rate and comment

e-mail: Emanuel93@gmx.de

Tuning: Standart

Bass starts at 0:30

G|--------|
D|--------|
A|------40|
E|--------|

G|----------------|----------------|------------886-|----------------|
D|4---------------|----------------|-----21---------|----------------|
A|----44--2-----04|2-----042-----4-|----2---4--4---4|2--2--1-4--46464|
E|------------22--|----22------22-2|4--4------------|----22-2--------|

0:49
G|----------------|----------------|----6----------|---------------|
D|----------------|---------------1|4--4-4---------|----4----------|
A|----44------2---|----44--2---224-|-------4-4-6-7-|2--2-2--------4|
E|2-------2-------|2---------------|---------------|-------2-------|

1:04
G|----------------|------------886-|----------------|----------------|
D|--4-------4-----|-----21---------|----------------|----------------|
A|22-2--1422-2--14|----2---4--4---4|2--2--1-446464--|----4-4-----2---|
E|----2-------22--|4--4------------|----22-2------64|2-2-----2-2-----|

1:23
G|----------------|----------------|----------------|----------------|
D|---------------1|----------------|----------------|----------------|
A|----44442222224-|--------44444444|--------22222222|--------44444444|
E|2222------------|22222222--------|22222222--------|22222222--------|

1:35
G|-------------------------|----------------|----------------|
D|-------------------------|----------------|----------------|
A|22222222/1414141414141414|--------44444444|--------44444444|
E|-------------------------|22222222--------|22222222--------|

1:42
G|----------------|----------------|----------------|----------------|
D|----------------|----------------|----------------|----------------|
A|--------44444444|2222222244444444|--------44444444|--------44444444|
E|22222222--------|----------------|22222222--------|22222222--------|

1:52
G|----------------|----------------|----------------|---------------|
D|----------------|----------------|----------------|---------------|
A|--------44444444|2222222244444444|--------4-4-----|--------2-2----|
E|22222222--------|----------------|2-2-------------|2-2------------|

2:01
G|----------------|----------------|---------------|----------------|
D|----------------|----------------|---------------|----------------|
A|--------4-4-----|2-2----2-2-XXXXX|--------4444444|--------2-------|
E|2-2-------------|----------------|22222222-------|22222222--------|

2:11
G|----------------|----------------|----------------|
D|----------------|----------------|4~--------------|
A|--------44444444|2222222222222h4-|----------------|
E|22222222--------|----------------|----------------|

2:21
G|----------------|------------886-|----------------|----------------|
D|--4-------4-----|-----21---------|----------------|----------------|
A|2--2--142--2--14|----2---4--4---4|2--2--1-446464--|--4-44-4----2---|   END
E|----22------22--|4--4------------|----22-2------64|2--2--6-2-------|



| /  slide up
| \  slide down
| h  hammer-on
| p  pull-off
| ~  vibrato
| +  harmonic
| x  Mute note
=============================================================================
comments
We did not receive enough feedback on this tab! Please rate:
print report bad tab
1 2 3 4 5
I want to post or [tab]
guest
You may want to rate the tab now too:
select rating
Please do not post tabs as comments. Select "correction" instead!