Oops, an error
Loading. Please wait.

Chelsea Tab

version 2
version 2

Whole song

Interactive

by Mest
2,711 views 6 this week
1 commentread comment
1 2 3 4 5
1 last vote to show rating
add to favorites
launch autoscroll
font size
0
reset
how to read this tab
guitar tuner
Autoscroll
slow
fast
+/-
esc
set tempo
stop
Help us to improve Ultimate-Guitar.com Take our survey!
×
-------------------------------------------------------------------------------
                                 Mest - CHELSEA
-------------------------------------------------------------------------------
INTRO:
======
''I thought you were the one...''
e|---------------------------------------------------------------------------|
B|---------------------------------------------------------------------------|
G|---------------------4------4------4--------------------4-----4-----4----4-|
D|-----2-------4-----4------4------4--------2------4----4-----4-----4----4---|
A|---2-------4-----2------1---------------2------4----2-----1----------------|
E|-0-------2---------------------4------0------2------------------4----2-----|

e|---------------------------------------------------------------------------|
B|---------------------------------------------------------------------------|
G|---------------------------------------------------------------------------|
D|-----2------4--------------------------------------------------------------|
A|---2------4----------------------------------------------------------------|
E|-0------2------------------------------------------------------------------|


e|---------------------------------------------------------------------------|
B|---------------------------------------------------------------------------|
G|--999999999999-1111111111111-1111111---------------------------------------|
D|--999999999999-1111111111111-1111111---------------------------------------|
A|--777777777777-999999999999--999999----------------------------------------|
E|---------------------------------------------------------------------------|
                              ===PM===

VERSE1: 
====== 
''A year ago we met...''
e|---------------------------------------------------------------------------|
B|---------------------------------------------------------------------------|
G|----------8-8-8-8--------------------9-9-9-9--9-9-9-9--11111111-11111111---|
D|-9-9-9-9--8-8-8-8--6-6-6-6--6-6-6-6--9-9-9-9--9-9-9-9--11111111-11111111---| x4
A|-9-9-9-9--6-6-6-6--6-6-6-6--6-6-6-6--7-7-7-7--6-6-6-6--9-9-9-9--9-9-9-9----|
E|-7-7-7-7-----------4-4-4-4--4-4-4-4----------------------------------------|
PM =====    =====    ======   =====    =====    =====    =====    =====     PM


CHORUS:
====== 
''I thought you were the one...''
e|---------------------------------------------------------------------------|
B|---------------------------------------------------------------------------|
G|-999999999999-1111111111111------------------------------------------------|
D|-999999999999-1111111111111-999999-999999-666666666666---------------------|
A|-777777777777-999999999999--999999-999999-666666666666---------------------|
E|----------------------------777777-666666-444444444444---------------------|

e|---------------------------------------------------------------------------|
B|---------------------------------------------------------------------------|
G|-999999999999-1111111111111------------------------------------------------|
D|-999999999999-1111111111111-999999-999999-666666-444444--------------------|
A|-777777777777-999999999999--999999-999999-666666-444444--------------------|
E|----------------------------777777-666666-444444-222222--------------------|

e|---------------------------------------------------------------------------|
B|---------------------------------------------------------------------------|
G|-999999999999-1111111111111------------------------------------------------|
D|-999999999999-1111111111111-9999999999999-99999999999--9~------------------|
A|-777777777777-999999999999--9999999999999-99999999999--9~------------------|
E|----------------------------7777777777777-77777777777--7~------------------|
                                            ====PM=====

VERSE2:
====== 
''I had to leave that night...''
e|--7----6----4----4----9----8----6----6-------------------------------------|
B|--7----7----4----4----9----8----7----7-------------------------------------|
G|--8----8----4----4----9----9----6----6-------------------------------------|
D|---------------------------------------------------------------------------| x2
A|---------------------------------------------------------------------------|
E|---------------------------------------------------------------------------|

''If he only knew the things...''
e|---------------------------------------------------------------------------|
B|---------------------------------------------------------------------------|
G|----------8-8-8-8--------------------9-9-9-9--9-9-9-9--11111111-11111111---|
D|-9-9-9-9--8-8-8-8--6-6-6-6--6-6-6-6--9-9-9-9--9-9-9-9--11111111-11111111---| 
A|-9-9-9-9--6-6-6-6--6-6-6-6--6-6-6-6--7-7-7-7--6-6-6-6--9-9-9-9--9-9-9-9----|
E|-7-7-7-7-----------4-4-4-4--4-4-4-4----------------------------------------|
   ===============================PM======================================   

e|---------------------------------------------------------------------------|
B|---------------------------------------------------------------------------|
G|----------8-8-8-8--------------------9-9-9-9--9-9-9-9--11111111-11111111---|
D|-9-9-9-9--8-8-8-8--6-6-6-6--6-6-6-6--9-9-9-9--9-9-9-9--11111111-11111111---| 
A|-9-9-9-9--6-6-6-6--6-6-6-6--6-6-6-6--7-7-7-7--6-6-6-6--9-9-9-9--9-9-9-9----|
E|-7-7-7-7-----------4-4-4-4--4-4-4-4----------------------------------------|
   ===============================PM===================   

''I thought you were the one...''
e|---------------------------------------------------------------------------|
B|---------------------------------------------------------------------------|
G|----------------------4------4------4--------------------------------------|
D|-----2-------4------4------4------4--------2-------4----7~-----------------|
A|---2-------4------2------1---------------2-------4------7~-(Pick slide)----|
E|-0-------2---------------------4------0--------2--------9~-----------------|

''Tonight Chelsea...''
e|---------------------------------------------------------------------------|
B|---------------------------------------------------------------------------|
G|------------------------------999999999999-1111111111111-------------------|
D|-999999-999999-666666-4444444-999999999999-1111111111111-------------------|
A|-999999-999999-666666-4444444-777777777777-999999999999--------------------|
E|-777777-666666-444444-2222222----------------------------------------------|


Guitar 1
''And i, i dunno where you are...''
e|---------------------------------------------------------------------------|
B|---------------------------------------------------------------------------|
G|--------888888---------------999999-999999-1111111-1111111-----------------|
D|-999999-888888-666666-666666-999999-999999-1111111-1111111-----------------|
A|-999999-666666-666666-666666-777777-666666-999999--999999------------------|
E|-777777--------444444-444444-----------------------------------------------|

e|---------------------------------------------------------------------------|
B|---------------------------------------------------------------------------|
G|--------888888---------------999999-999999--11-----------------------------|
D|-999999-888888-666666-666666-999999-999999--11-x24--9~---------------------|
A|-999999-666666-666666-666666-777777-666666--9-------9~---------------------|
E|-777777--------444444-444444------------------------7~---------------------|
                  

Guitar 2
e|---------------------------------------------------------------------------|
B|---------------------------------------------------------------------------|
G|---------------------------------------------------------------------------|
D|--------------6-8-9---9-9-8-8-6-6-8-9-9-8-8-8-6-6-6-6----------------------|
A|------6-7-9----------------------------------------------------------------|
E|--7------------------------------------------------------------------------|

e|---------------------------------------------------------------------------|
B|---------------------------------------------------------------------------|
G|---------------------------------------------------------------------------|
D|--------------6-8-9---9-9-8-8-6-6-8-9-9-11-11-13-13-14-14------------------|
A|------6-7-9----------------------------------------------------------------|
E|--7------------------------------------------------------------------------|
Suggest correction
Give kudos to tab author, rate the tab!
1 2 3 4 5
comments
print report bad tab
1 comment total.
0 reply
think11270 20 Feb 19, 2003 12:00 AM

I dont understand what guitar 2 does?!

guest
You may want to rate the tab now too:
select rating
Wanna post a correction for this tab? Suggest correction