Oops, an error
Loading. Please wait.

Cursed Tab

version 1
version 1

Whole song

Interactive

by Mest
432 views 1 this week
no commentswrite comment
1 2 3 4 5
3 more votes to show rating
add to favorites
launch autoscroll
font size
0
reset
how to read this tab
guitar tuner
Autoscroll
slow
fast
+/-
esc
set tempo
stop
Help us to improve Ultimate-Guitar.com Take our survey!
×
Author
Mest-Cursed

Intro:

E|-----------------------------------------------|
B|------3-----------0-----------3----------------|
G|----0---0-------0---0-------0---0---------0----|
D|----------------------------------------4---4--|
A|--------------------------3-----------5--------|
E|--0-----------3--------------------------------|

E|----------------------------------------|
B|------3-----------0-----------3---------|
G|----0---0-------0---0-------0---0-------|
D|-------------------------------------4--|
A|--------------------------3----------5--|
E|--0-----------3-------------------------|

Verse:

E|------------------------------------------|
B|------------------------------------------|
G|------------77777777--55555555--55555555--|
D|--22222222--77777777--55555555--44445555--|
A|--22222222--55555555--33333333--33333333--|
E|--00000000--------------------------------|

(Desperately waiting...)
E|------------------------------------------|
B|------------------------------------------|
G|------------77777777--55555555--55555555--|
D|--22222222--77777777--55555555--44445555--|
A|--22222222--55555555--33333333--33333333--|
E|--00000000--------------------------------|

(It just won't come...)
E|------------------------------------------------------|
B|------------------------------------------------------|
G|-------999999-------777777-------555555-------555555--|
D|-------999999-------777777-------555555-------555555--|
A|-------777777-------555555-------333333-------333333--|
E|------------------------------------------------------|

(Now my love...)
E|----------------------------------------------------------------|
B|----------------------------------------------------------------|
G|-------999999-------777777-------555555-------555555--77777777--|
D|-------999999-------777777-------555555-------555555--77777777--|
A|-------777777-------555555-------333333-------333333--55555555--|
E|----------------------------------------------------------------|

Chorus: Play 2x

E|------------------------------------------|
B|------------------------------------------|
G|----------------------55555555--77777777--|
D|--22222222--55555555--55555555--77777777--|
A|--22222222--55555555--33333333--55555555--|
E|--00000000--33333333----------------------|

Post-Chorus:

E|----------------------------------------|
B|------3-----------0-----------3---------|
G|----0---0-------0---0-------0---0----7--|
D|-------------------------------------7--|
A|--------------------------3----------5--|
E|--0-----------3-------------------------|

Then play Verse
Then play Chorus 2x

Chorus 2: Play 4x

(The ambulance...)
E|------------------------------------------|
B|------------------------------------------|
G|--------------------------------55555555--|
D|--55555555--44444444--22222222--55555555--|
A|--55555555--55555555--22222222--33333333--|
E|--33333333--22222222--00000000------------|

Bridge:

E|------7------8----------------5--|
B|----8------8---------8------7----|
G|--9------9---------9------7------|x3
D|----------------10---------------|
A|---------------------------------|
E|---------------------------------|

(Wipe the blood...)
E|------------------------------------|
B|------------------------------------|
G|--999999999999--55555555--77777777--|
D|--999999999999--55555555--77777777--|
A|--777777777777--33333333--55555555--|
E|------------------------------------|

(Goodbye...)
E|----------------|
B|----------------|
G|--777777777777--|
D|--777777777777--|
A|--555555555555--|
E|----------------|

Then play Chorus 2x
Then play Chorus 2 4x

Ending:

E|-----------------------------------------------|
B|------3-----------0-----------3----------------|
G|----0---0-------0---0-------0---0---------0----|
D|----------------------------------------4---4--|
A|--------------------------3-----------5--------|
E|--0-----------3--------------------------------|

E|-----------------------------------------------|
B|------3-----------0-----------3----------------|
G|----0---0-------0---0-------0---0---------0----|
D|----------------------------------------4---4--|
A|--------------------------3-----------5--------|
E|--0-----------3--------------------------------|

Suggest correction
Give kudos to tab author, rate the tab!
1 2 3 4 5
comments
print report bad tab
guest
You may want to rate the tab now too:
select rating
Wanna post a correction for this tab? Suggest correction