Oops, an error
Loading. Please wait.

Drawing Board Bass Tab

version 1
version 1

Whole song

Interactive

by Mest
978 views 1 this week
no commentswrite comment
1 2 3 4 5
x 3
add to favorites
launch autoscroll
font size
0
reset
guitar tuner
Autoscroll
slow
fast
+/-
esc
set tempo
stop
Help us to improve Ultimate-Guitar.com Take our survey!
×
Author
~ symbolize connected triplets (for all of those who are 
familiar with sheet music)
A note surrounded by parentheses () symbolizes a held note
x= pick/finger scratch
/=slide up
\=slide down

rest for first 16 measures then come in with the vocals

G ---------------------------------------------------------
D --------4~4~4--2~2~2--4~4~4-------4~4~4--2~2~2--4~4~4----
A --2~2~2---------------------2~2~2------------------------
E ---------------------------------------------------------

G ----------------------------------------------------------------
D ----------------------------------------------------------------
A --2-2-2-2-2-2-2-2-----------------------------------------------
E ------------------2-2-2-2-2-2-2-2-0-0-0-0-0-0-0-0-2-2-2-2-2-2-2-
 
G ------------------------------------------------------
D ------------------------------------------------------
A ------------------------------------------------------
E --0-0-0-0-0-0-0-0-0-0-0-0-0-0-0-0-2-2-2-2-2-2-2-2-2-2-

G ------------------------------------------------------
D ------------------------------------------------------
A --------------2~2~2---------------------2~2~2---------
E --2-2-2-2-2-2-------0~0~0--4~4~4--2~2~2-------0~0~0---

G ------------------------------------------------------
D ------------------------------------------------------
A ---------------2~2~2---------------------2~2~2--------
E --4~4~4--2~2~2-------0~0~0--4~4~4--2~2~2-------0~0~0--

G ------------------------------------------------------
D ------------------------------------------------------
A ------------------------------------------------------
E --4-4-4-4-4-4-4-4-2-2-2-2-2-2-2-2-0-0-0-0-0-0-0-0-0-0-

G ------------------------------------------------------
D ------------------------------------------------------
A ------------------------------------------------------
E --0-0-0-0-0-0-2-2-2-2-2-2-2-2-2-2-2-2-2-2-2-2---------

G ------------------------------------------------------
D ------------------------------------------------------
A --2-2-2-2-2-2-2-2-------------------------------------
E ------------------2-2-2-2-2-2-2-2-0-0-0-0-0-0-0-0-2-2-

G ------------------------------------------------------
D ------------------------------------------------------
A --------------2-2-2-2-2-2-2-2-------------------------
E --2-2-2-2-2-2-----------------2-2-2-2-2-2-2-2-0-0-0-0-

G ----------------------------------------------------------
D ----------------------------------------------------------
A ---------------------------2-2-2-2-2----------------------
E --0-0-0-0-2-2-2-2-2-2-2-2-------------2-2-2-2-2-0-0-0-0-0-

G -------------------------------------------------------
D -------------------------------------------------------
A -------------------------------------------------------
E --2-2-2-2-2-0-0-0-0-0-0-0-0-0-0-0-0-0-0-0-0-2-2-2-2-2--

G -------------------------------------------------------
D -------------------------------------------------------
A ------------------------2-2-2-2-2----------------------
E --2-2-2-2-2-2-2-2-2-2-2-----------0-0-0-0-0-4-4-4-4-4--

G -------------------------------------------------------
D -------------------------------------------------------
A ------------2-2-2-2-2----------------------------------
E --2-2-2-2-2-----------0-0-0-0-0-4-4-4-4-4-2-2-2-2-2----

G -------------------------------------------------------
D -------------------------------------------------------
A --2-2-2-2-2-------------------------------2-2-2-2-2----
E ------------0-0-0-0-0-4-4-4-4-4-2-2-2-2-2--------------

G -------------------------------------------------------
D -------------------------------------------------------
A -------------------------------------------------------
E --0-0-0-0-0-4-4-4-4-4-4-4-4-2-2-2-2-2-2-2-2-0-0-0-0-0--

G --------------------------------------------------------
D --------------------------------------------------------
A --------------------------------------------------------
E --0-0-0-0-0-0-0-0-0-0-0-2-2-2-2-2-2-2-2-2-2-2-2-2-2-2-2-

G ----------------------------------------------------------
D ----------------------------------------------------------
A --2----------------------2----------------------2---------
E ----2-2-4-4-2-2-(0)-(2)----2-2-4-4-2-2-(0)-(2)----2-2-4-4-

G -----------------------------------------------------------
D -----------------------------------------------------------
A ---------------2-----------------------------2-2-2-2-2-----
E --2-2-(0)-(2)----2-2-4-4-2-2-(0)-(0)-(2)-(2)-----------0-0-

G -------------------------------------------------------
D -------------------------------------------------------
A -----------------------------2-2-2-2-2-----------------
E --0-0-0-4-4-4-4-4-2-2-2-2-2------------0-0-0-0-0-4-4-4-

G ---------------------------------------------------------
D ---------------------------------------------------------
A ----------------2------------------------------2---------
E --4-4-2-x-x-x-x---2-2-4-4-2-2-(0)-(0)-(2)-(2)----2-2-4-4-

G ---------------------|-----------------------|-------------------
D ---------------------|REST FOR 7 1/2 MEASURES|-------------------
A ---------------------|-----------------------|---------2-2-2-2-2-
E --2-2-(0)-(0)-(2)-(2)|-----------------------|-x-x-x-x-----------

G --------------------------------------------------------
D --------------------------------------------------------
A ---------------------------------2-2-2-2-2--------------
E --0--0-0-0-0-4-4-4-4-4-2-2-2-2-2-----------0-0-0-0-0----

G --------------------------------------------------------
D --------------------------------------------------------
A -------------------------2-2-2-2-2----------------------
E --4-4-4-4-4/14-14-14-14------------0-0-0-0-0-4-4-4-4-4--

G --------------------------------------------------------
D --------------------------------------------------------
A ------------2-2-2-2-2-----------------------------------
E --2-2-2-2-2-----------0-0-0-0-0-4-4-4-4-4-4-4-4-4-4-----

G --------------------------------------------------------
D --------------------------------------------------------
A --------------------------------------------------------
E --2-2-2-2-2-2-2-2-0-0-0-0-0-0-0-0-0-0-0-0-0-0-0-0-2-2---

G -------------------------------(4)---
D -------------------------------------
A -------------------------------(2)---
E --2-2-2-2-2-2-2-2-2-2-2-2-2-2--------

brian nAsh
Suggest correction
Give kudos to tab author, rate the tab!
1 2 3 4 5
comments
print report bad tab
guest
You may want to rate the tab now too:
select rating
Wanna post a correction for this tab? Suggest correction