Oops, an error
Loading. Please wait.

Drawing Board Tab

version 1
version 1

Whole song

Interactive

by Mest
9,860 views 9 this week
5 commentsread comments
1 2 3 4 5
accurate
x 6
add to favorites
launch autoscroll
font size
0
reset
how to read this tab
guitar tuner
Tab Pro tools
  • play this tab
  • loop segment
  • change instrument
  • show fretboard
  • metronome
×
Best way to learn
"Drawing Board"
Autoscroll
slow
fast
+/-
esc
set tempo
stop
This is just in Standard Tuning

INTRo:

Guitar 1:
----------------------------------------
----------------------------------------
---------------------------------------
-----4-4-------4-4-------4-4-------4-4--  Repeat 6x
-2-2-----2------------------------------
-----------0-0-----0-4-4-----4-2-2-----2

Guitar 2:

------------------------------------------
-7\4-2-0-4-2-4--7\4-2-0-4-4-4-2-2-2h4p2-0-
------------------------------------------  come in after
------------------------------------------  2nd time and 
------------------------------------------  play 1x
------------------------------------------

I can recall only this one time
This kind of control a girl had on my mind

Verse:

--------------------------------------
--------------------------------------
-4^^^^^^^-----------------------------
-4^^^^^^^-2^^^^^^--6^^^^^^^--4^^^^^^^-
-2^^^^^^^-2^^^^^^--6^^^^^^^--4^^^^^^^-
----------0^^^^^^--4^^^^^^^--2^^^^^^^-

I fall in deep I can't get out

---------------------------------------
---------------------------------------
---------------------------------------
-2^^^^^^^^^---4^^^^^^^^----------------
-2^^^^^^^^^---4^^^^^^^^----------------
-0^^^^^^^^^---2^^^^^^^^----------------

I've never acted this way before

Chorus:

--------------------------------------
--------------------------------------
-4^^^^^^^-----------------------------
-4^^^^^^^-2^^^^^^--6^^^^^^^--4^^^^^^^-
-2^^^^^^^-2^^^^^^--6^^^^^^^--4^^^^^^^-
----------0^^^^^^--4^^^^^^^--2^^^^^^^-

I spent days and nights in my bedroom
tryin to write the perfect song to sing to you
write a song a day but she won't like it anyway

----------------------------------
----------------------------------
--4^^^^^^^^-----------------------
--4^^^^^^^^---2^^^^^^-------------
--2^^^^^^^^---2^^^^^^-------------
--------------0^^^^^^-------------

Back to the Drawing Board

-----------------------------------
-----------------------------------
-----------------------------------
-6^^^^^--4^^^^^--2^^^^^---(4^^^^^)-
-6^^^^^--4^^^^^--2^^^^^---(4^^^^^)-
-4^^^^^--2^^^^^--0^^^^^---(2^^^^^)-
(PM)_______________________________

With the Words you've heard a million times before

Verse 2:

--------------------------------------
--------------------------------------
-4^^^^^^^-----------------------------
-4^^^^^^^-4^^^^^^--6^^^^^^^--4^^^^^^^-
-2^^^^^^^-4^^^^^^--6^^^^^^^--4^^^^^^^-
----------2^^^^^^--4^^^^^^^--2^^^^^^^-

Feelin alone and she's on my mind
Try to erase all the pain from time
She's breakin up and I'm breakin down

---------------------------------------
---------------------------------------
---------------------------------------
-2^^^^^^^^^---4^^^^^^^^----------------
-2^^^^^^^^^---4^^^^^^^^----------------
-0^^^^^^^^^---2^^^^^^^^----------------

Now Im headed out of this fucked up town

Chorus:

--------------------------------------
--------------------------------------
-4^^^^^^^-----------------------------
-4^^^^^^^-2^^^^^^--6^^^^^^^--4^^^^^^^-
-2^^^^^^^-2^^^^^^--6^^^^^^^--4^^^^^^^-
----------0^^^^^^--4^^^^^^^--2^^^^^^^-

I spent days and nights in my bedroom
tryin to write the perfect song to sing to you
write a song a day but she won't like it anyway

----------------------------------
----------------------------------
--4^^^^^^^^-----------------------
--4^^^^^^^^---2^^^^^^-------------
--2^^^^^^^^---2^^^^^^-------------
--------------0^^^^^^-------------

Back to the Drawing Board

-----------------------------------
-----------------------------------
-----------------------------------
-6^^^^^--4^^^^^--2^^^^^---(4^^^^^)-
-6^^^^^--4^^^^^--2^^^^^---(4^^^^^)-
-4^^^^^--2^^^^^--0^^^^^---(2^^^^^)-
(PM)_______________________________

With the Words you've heard a million times before

Bridge:

-----------------------------------
-----------------------------------
-44--------------------------------
-44--4--666--4--2^^^^^--4^^^^^-----
-22--4--666--4--2^^^^^--4^^^^^-----
-----2--444--2--0^^^^^--2^^^^^-----

So love me so I can be myself again
So hate me so things seem normal in my head
Im tryin to break away this ball and chain
So hate me so things seem normal in my head

-----------------------------------
-----------------------------------
-----------------------------------
-4---------------------------------
-4---------------------------------
-2---------------------------------

Things seem normal in my head


Solo: I don't know the exact picking so if you just mess around with the guitar 2 
intro you might figure it out. They play the bridge in the background for chords.

Chorus:
comments
print report bad tab
5 comments total. Showing first comments.
0 reply
lacrosserules wrote on June 6 2002, 12:00 am

on guitar part # 2 the intro goes like this: 7/4 4 2 0 4 2 2/4/2 7/4 4 2 0 2 4 4 4 4/5 4 2 2/4 2 0

0 reply
TheOffspring77 wrote on December 3 2002, 12:00 am

i dont know about guitar 2's intro but the rest is pretty sweet

0 reply
Lola wrote on July 2 2004, 12:00 am

I think Guitar 2 should go like this:
Guitar 2:

------------------------------------------
-7\4-2-0-4-2-4--2-2/4/2--7-4--2-0-2-4-4-2-2-2/4/2-0
------------------------------------------
------------------------------------------ 2nd time and
------------------------------------------ play 1x
------------------------------------------

okay well..... i suck at tabs...but thats how i got it haha:)
otherwise its good.nicejob

I want to post or [tab]
guest
You may want to rate the tab now too:
select rating
Please do not post tabs as comments. Select "correction" instead!