Oops, an error
Loading. Please wait.

Drawing Board Tab

version 3
version 3

Whole song

Interactive

by Mest
1,613 views 3 this week
1 commentread comment
1 2 3 4 5
please rate
add to favorites
launch autoscroll
font size
0
reset
how to read this tab
guitar tuner
Autoscroll
slow
fast
+/-
esc
set tempo
stop
Help us to improve Ultimate-Guitar.com Take our survey!
×
-------------------------------------------------------------------------------
                                Mest - DRAWING BOARD
-------------------------------------------------------------------------------

Tabbed by: TeEj DaNqUe
email: F_TeEj_W@Hotmail.com

/ = slide up 
\ = slide down
h = hammer
p = pull off

INTRO GUITAR 1:
============== 
(keep playing this untill second verse)
e---------------------------------------------------------------------
b---------------------------------------------------------------------
g---------------------------------------------------------------------
d--------4-4---------------4-4---------------4-4--------------4-4-----
a---2-2--------2------------------------------------------------------
e---------------------0-0--------0------4-4--------4-----2-2--------2-  

INTRO GUITAR 2:
==============
(play after guitar one plays the intro twice)
e---------------------------------------------------------------------
b---------------------------------------------------------------------
g--5/11--8-6-4--6/8-6-6h8p6----5/11--8-6-4-6-8-8-8-8/9\8-6-6h8p6-4----
d---------------------------------------------------------------------
a---------------------------------------------------------------------
e---------------------------------------------------------------------

VERSE 1:
=======
''I've fallen deep...''
e---------------------------------------------------------------------
b---------------------------------------------------------------------
g----4-4-4-4-4-4-4----------------------------------------------------
d----4-4-4-4-4-4-4---4-4-4-4-4-4-4---2-2-2-2-2-2-2---4-4-4-4-4-4-4----
a----2-2-2-2-2-2-2---4-4-4-4-4-4-4---2-2-2-2-2-2-2---4-4-4-4-4-4-4----
e--------------------2-2-2-2-2-2-2---0-0-0-0-0-0-0---2-2-2-2-2-2-2----
     ===========================PM================================

e---------------------------------------------------------------------
b---------------------------------------------------------------------
g----4-4-4-4-4-4-4---4-4-4-4-4-4-4------------------------------------
d----4-4-4-4-4-4-4---2-2-2-2-2-2-2---6-6--6--6-6--6--4-4--4---4-4--4--
a----2-2-2-2-2-2-2---2-2-2-2-2-2-2---6-6--6--6-6--6--4-4--4---4-4--4--
e------------------------------------4-4--4--4-4--4--2-2--2---2-2--2--
     ==============PM=============   ===     ===     ===      ===

CHORUS:
======
''I spend days and nights...''
e-----------------------------------------------------------
b-----------------------------------------------------------
g---4-4-4-4-4-4---------------------------------------------
d---4-4-4-4-4-4---2-2-2-2-2-2---6-6-6-6-6-6---4-4-4-4-4-4---
a---2-2-2-2-2-2---2-2-2-2-2-2---6-6-6-6-6-6---4-4-4-4-4-4--- x3
e-----------------0-0-0-0-0-0---4-4-4-4-4-4---2-2-2-2-2-2---   

''Back to the drawing board...''
e------------------------------------------------------------
b------------------------------------------------------------
g---4-4-4-4-4-4----------------------------------------------
d---4-4-4-4-4-4---2-2-2-2-2-2---6--6-6-6-6-6---4--4-4-4-4-4--
a---2-2-2-2-2-2---2-2-2-2-2-2---6--6-6-6-6-6---4--4-4-4-4-4--
e-----------------0-0-0-0-0-0---4--4-4-4-4-4---2--2-2-2-2-2--	
 				   ====PM===      ===PM====                           

e------------------------------------------------------------
b------------------------------------------------------------
g------------------------------------------------------------
d--2-2-2-2-2-2-2-2-2-2-2-2---4-4-4-4-4-4-4-4-4-4-4-4---------
a--2-2-2-2-2-2-2-2-2-2-2-2---4-4-4-4-4-4-4-4-4-4-4-4---------
e--0-0-0-0-0-0-0-0-0-0-0-0---2-2-2-2-2-2-2-2-2-2-2-2---------

VERSE 2:
=======
''Feeling alone...''
e---------------------------------------------------------------------
b---------------------------------------------------------------------
g----4-4-4-4-4-4-4----------------------------------------------------
d----4-4-4-4-4-4-4---4-4-4-4-4-4-4---2-2-2-2-2-2-2---4-4-4-4-4-4-4----
a----2-2-2-2-2-2-2---4-4-4-4-4-4-4---2-2-2-2-2-2-2---4-4-4-4-4-4-4---- x2
e--------------------2-2-2-2-2-2-2---0-0-0-0-0-0-0---2-2-2-2-2-2-2----
      ==========================PM================================

''She's breakin up...''
e---------------------------------------------------------------------
b---------------------------------------------------------------------
g----4-4-4-4-4-4-4----------------------------------------------------
d----4-4-4-4-4-4-4---4-4-4-4-4-4-4---2-2-2-2-2-2-2---4-4-4-4-4-4-4----
a----2-2-2-2-2-2-2---4-4-4-4-4-4-4---2-2-2-2-2-2-2---4-4-4-4-4-4-4---- 
e--------------------2-2-2-2-2-2-2---0-0-0-0-0-0-0---2-2-2-2-2-2-2----
 
e---------------------------------------------------------------------
b---------------------------------------------------------------------
g---------------------------------------------------------------------
d----2-2-2-2-2-2-2-2-2-2-2-2-2-2---4-4-4-4-4-4-4-4-4-4-4-4-4-4--------
a----2-2-2-2-2-2-2-2-2-2-2-2-2-2---4-4-4-4-4-4-4-4-4-4-4-4-4-4-------- 
e----0-0-0-0-0-0-0-0-0-0-0-0-0-0---2-2-2-2-2-2-2-2-2-2-2-2-2-2--------
       =========================PM=====================

CHORUS:
======
''I spend days and nights...''
e-----------------------------------------------------------
b-----------------------------------------------------------
g---4-4-4-4-4-4---------------------------------------------
d---4-4-4-4-4-4---2-2-2-2-2-2---6-6-6-6-6-6---4-4-4-4-4-4---
a---2-2-2-2-2-2---2-2-2-2-2-2---6-6-6-6-6-6---4-4-4-4-4-4--- x3
e-----------------0-0-0-0-0-0---4-4-4-4-4-4---2-2-2-2-2-2---   

''Back to the drawing board...''
e------------------------------------------------------------
b------------------------------------------------------------
g---4-4-4-4-4-4----------------------------------------------
d---4-4-4-4-4-4---2-2-2-2-2-2---6--6-6-6-6-6---4--4-4-4-4-4--
a---2-2-2-2-2-2---2-2-2-2-2-2---6--6-6-6-6-6---4--4-4-4-4-4--
e-----------------0-0-0-0-0-0---4--4-4-4-4-4---2--2-2-2-2-2--	
 				   ====PM===      ===PM====  
''In your head...''
e------------------------------------------------------------
b------------------------------------------------------------
g------------------------------------------------------------
d--2-2-2-2-2-2-2-2-2-2-2-2---4-4-4-4-4-4-4-4-4-4-4-4---------
a--2-2-2-2-2-2-2-2-2-2-2-2---4-4-4-4-4-4-4-4-4-4-4-4---------
e--0-0-0-0-0-0-0-0-0-0-0-0---2-2-2-2-2-2-2-2-2-2-2-2---------

BRIDGE:
======
''So love me...''
e------------------------------------------------------------
b------------------------------------------------------------
g----4-------------------------------------------------------
d----4---4-4----6-6----4-4---2-2-2-2-2-2-2---4-4-4-4-4-4-4---
a----2---4-4----6-6----4-4---2-2-2-2-2-2-2---4-4-4-4-4-4-4--- x4
e--------2-2----4-4----2-2---0-0-0-0-0-0-0---2-2-2-2-2-2-2---
(Fourth time stay on Em and F# longer)                                                    

GUITAR SOLO:
===========
(While second guitar plays CHORUS riff)
e--------------------------------------------------------------------
b--------------------------------------------------------------------
g--5/11--8-6-4--6/8-6-6h8p6----5/11--8-6-4-6-8-8-8-8/9\8-6--6666-----
d--------------------------------------------------------------------
a--------------------------------------------------------------------
e--------------------------------------------------------------------
							   ==PM==
GUITAR SOLO 2: x2
=============
''While second guitar plays BRIDGE riff)

e--------------------------------------------6--7--9--|------------|
b---12-----7-7----9-9---7-7---5-5-5-5-5---7-----------|-7-7-7-7-7--|
g---11-----6-6----8-8---6-6---4-4-4-4-4---------------|-6-6-6-6-6--|
d-----------------------------------------------------|------------|
a-----------------------------------------------------|------------|
e-----------------------------------------------------|------------|
						 (Second time end on this)
INTRO GUITAR 1
==============

CHORUS
====== 
(End on B)
Suggest correction
What's this?
You can suggest a correction to this tab. Community and Mods will review your correction and vote to approve or reject it.
comments
We did not receive enough feedback on this tab! Please rate:
print report bad tab
1 2 3 4 5
1 comment total.
0 reply
kevGhommiefry 37 wrote on October 24 2004, 12:00 am

good tab except 4 end of (solo)bridge it is raked instead of plam muted

guest
You may want to rate the tab now too:
select rating
Please do not post tabs as comments. Select "correction" instead!