Oops, an error
Loading. Please wait.

Drawing Board Tab

version 4
version 4

Whole song

Interactive

by Mest
850 views 1 this week
3 commentsread comments
1 2 3 4 5
x 3
add to favorites
launch autoscroll
font size
0
reset
how to read this tab
guitar tuner
Autoscroll
slow
fast
+/-
esc
set tempo
stop
Help us to improve Ultimate-Guitar.com Take our survey!
×
Tabbed by RockGodPercy

Standard Tuning

\ = slide down
h = hammer on
p = pull off
* = palm mute
pm = palm mute

Intro Guitar 1
e|-----------------------------------------------------------------------------
B|-----------------------------------------------------------------------------
G|-----------------------------------------------------------------------------
D|---44---44----44----44-------------------------------------------------------
A|-22--2-----------------------------------------------------------------------
E|------00--0-44--4-22--2-reapeat-6x-------------------------------------------

Intro Guitar 2
e|-----------------------------------------------------------------------------
B|-7\4-2-0~--4-2-2h4p2-7\4-2-0-2-4-4-4-4h5p4-2-2h4p2-0-------------------------
G|-----------------------------------------------------------------------------
D|---------------come-in-after-2nd-time-and-play-1x----------------------------
A|-----------------------------------------------------------------------------
E|-----------------------------------------------------------------------------

"IntroVerse" both guitars
e|-----------------------------------------------------------------------------
B|-----------------------------------------------------------------------------
G|-4---------------------------------------------------------------------------
D|-4-----4-----2-----4-----2-----44-4-44-4-44-4-44-4---------------------------
A|-2-8x--4-----2-----4-----2-----44-4-44-4-44-4-44-4---------------------------
E|-------2-8x--0-8x--2-8x--0-16x-22-2-22-2-22-2-22-2---------------------------
   *     *     *     *     *     **   **   **   **   

Chorus both guitars
e|-----------------------|-----------------------------------------------------
B|-----------------------|-----------------------------------------------------
G|-4---------------------|-44444444----------------------------------------4---
D|-4----2----6----4------|-44444444-22222222-66666666-44444444-2-----4-----4---
A|-2-8x-2----6----4----3x|-22222222-22222222-66666666-44444444-2-----4-----2---
E|------0-8x-4-8x-2-8x---|----------00000000-44444444-22222222-0-16x-2-16x-----
                                              *******  *******                 

Verse both guitars
e|-----------------------|---------------------|-------------------------------
B|-----------------------|---------------------|-------------------------------
G|-4---------------------|-4-------------------|-4-----------------------------
D|-4----4----2----4------|-4----4----2----4----|-4-----------------------------
A|-2-8x-4----2----4----2x|-2-8x-4----2----4----|-2-then-pm-and-then-fade-pm-off
E|------2-8x-0-8x-2-8x---|------2-8x-0-8x-2-8x-|-------------------------------
   *    *    *    *

Chorus

Bridge
e|-----------------------------------------------------------------------------
B|-----------------------------------------------------------------------------
G|-44--------------------------------------------------------------------------
D|-44-4-666-4-222222-444444----------------------------------------------------
A|-22-4-666-4-222222-444444-4x-------------------------------------------------
E|----2-444-2-000000-222222----------------------------------------------------

Solo Guitar 1
e|----------------------------------------------------|------------------------
B|-7\4-2-0~--4-2-2h4p2-7\4-2-0-2-4-4-4-4h5p4-2-2h4p2-0|------------------------
G|----------------------------------------------------|------------------------
D|----------------------------------------------------|------------------------
A|----------------------------------------------------|------------------------
E|----------------------------------------------------|------------------------

e|-7-22-77-66-*4-(16x)-6-(6x)-7-9*---------------------------------------------
B|-------------not-sure-here---------------------------------------------------
G|-----------------------------------------------------------------------------
D|-----------------------------------------------------------------------------
A|-----------------------------------------------------------------------------
E|-----------------------------------------------------------------------------

Solo Guitar 2
e|-----------------------|-----------------------------------------------------
B|-----------------------|-----------------------------------------------------
G|-4---------------------|-44--------------------------------------------------
D|-4----2----6----4------|-44-4-666-4-22222222-44444444------------------------
A|-2-8x-2----6----4----2x|-22-4-666-4-22222222-44444444------------------------
E|------0-8x-4-8x-2-8x---|----2-444-2-00000000-22222222------------------------

Intro Guitar 1

Chorus Both Guitars (with no pm)

End on B5 chord

Well that's it! I'm sure it's 100% correct except for that small bit in the solo
that I pointed out.  Anyway, any constructive criticism email me at NamikDragon@yahoo.com.
Any comments email me at Kissmyass@upyours.com.
Suggest correction
Give kudos to tab author, rate the tab!
1 2 3 4 5
comments
print report bad tab
3 comments total.
0 reply
jdmrawk 10 Jul 01, 2004 12:00 AM

this is the easiest to read out of all the versions

0 reply
mikeweidner38 430 Mar 28, 2007 07:54 PM

ha i was goin to say the same exact thing this is real easy to read and pretty accurate. nice job man!

0 reply
BenFoffenbock 30 May 23, 2008 06:22 AM

This one is actually well laid out for once. Nice.

guest
You may want to rate the tab now too:
select rating
Wanna post a correction for this tab? Suggest correction